Guitar Tabs, Chords and Lyrics
Major upgrade!! After one year development the new version of Chordie is now online! Please give feedback.


Always Crashing in the Same Car  David Bowie

[Verse 1] 
[G]Every chance [Em]every chance that I take [F] I take it on the road
 
 e|-------------------------------------------------------------------------------------------------------|
 B|-------------------------------------------------------------------------------------------------------|
 G|-------------------------------------------------------------------------------------------------------|
 D|--------------5-2---5-2--5-5-----------------------5-2---5-2---5-5-------5-2---5-2--5-5----------------|
 A|------------5-----5------------------------------5-----5-----5---------5-----5-------------------------|
 E|-------------------------------------------------------------------------------------------------------|

[G] Those kilometres and the [Em]red lights [F] I was always looking left and right
 
 e|-----------------------------------------------------------------------------------------------------------|
 B|-----------------------------------------------------------------------------------------------------------|
 G|-----------------------------------------------------------------------------------------------------------|
 D|----5-2---5-2--5-5---------5-5---------------5-5------------5-2---5-2--5-5---------------------5-5---------|
 A|--5-----5-------------------------------------------------5-----5------------------------------------------|
 E|-----------------------------------------------------------------------------------------------------------|

[G] Oh, but I'm
 
 e|--------------------------------------------|
 B|--------------------------------------------|
 G|--------------------------------------------|
 D|---5-5--------5-2---5-2---------------------|
 A|------------5-----5-------------------------|
 E|--------------------------------------------|

[Cborus] 
[Bb] Always [F]crashing in the [Em]same car
 
 e|-------------------------------------------------------------------------------------------------------|
 B|------------------6\-------------------7-8-10-8-7-8~-----7-8-10-8-7-8~---------------------------------|
 G|--------3-----2-5--------------------------------------------------------------------------------------|
 D|----0-3-----3------------------------------------------------------------------------------------------|
 A|--1----------------------------------------------------------------------------------------------------|
 E|-------------------------------------------------------------------------------------------------------|

[C] [D] [Em]  
 
 e|----------------8--12----------------------10--14---12-----------------|
 B|--------------8-------------------------10-----------------------------|
 G|------------9------------------------11--------------------------------|
 D|---------10-----------------------12-----------------------------------|
 A|----7-10---------------------9-12--------------------------------------|
 E|--8-----------------------10-------------------------------------------|

[F] [Dm] [Fmaj7] [F]  
 
 e|---/8~---10~---10(12)--13-------|
 B|--------------------------------|
 G|--------------------------------|
 D|--------------------------------|
 A|--------------------------------|
 E|--------------------------------|

[Verse 2] 
[G] Jasmine, [Em]I saw you peeping [F]As I pushed my foot down to the floor
 
 e|------------------------------------------------------------------------------------------------------|
 B|------------------------------------------------------------------------------------------------------|
 G|------------------------------------------------------------------------------------------------------|
 D|--5-5---------5-5-------------5-5--------5-5-------5-2----5-2---5-5-----------------------------------|
 A|------------5--------------------------5---------------5------5---------------------------------------|
 E|------------------------------------------------------------------------------------------------------|

[G] I was going round and round [Em] the hotel garage [F]
 
 e|-------------------------------------------------------------------------------------------------|
 B|-------------------------------------------------------------------------------------------------|
 G|-------------------------------------------------------------------------------------------------|
 D|---5-5-----5-2---5-2--5--2-----------------------------5-5-----------------5-5----------5-5------|
 A|---------5-----5---------------------------------------------------------5-----------------------|
 E|-------------------------------------------------------------------------------------------------|

M[G]ust have been touching close to 94
 
 e|----------------------------------------------|
 B|----------------------------------------------|
 G|----------------------------------------------|
 D|----5-2---5-2---5-5----------------------5--5-|
 A|--5-----5-----5-----------------------5-------|
 E|----------------------------------------------|

[Cborus] 
[Bb] Always [F]crashing in the [Em]same car
 
 e|-------------------------------------------------------------------------------------------------------|
 B|------------------6\-------------------7-8-10-8-7-8~-----7-8-10-8-7-8~---------------------------------|
 G|--------3-----2-5--------------------------------------------------------------------------------------|
 D|----0-3-----3------------------------------------------------------------------------------------------|
 A|--1----------------------------------------------------------------------------------------------------|
 E|-------------------------------------------------------------------------------------------------------|

[C] [D] [Em] Yeah (Hold bend)
 
 e|----------------8--12----------------------10--14---12-------------------------------------------------|
 B|--------------8-------------------------10---------------------------------5(7)---------(7)5--3--3\1---|
 G|------------9------------------------11------------------------7/9--9~---------------------------------|
 D|---------10-----------------------12-------------------------------------------------------------------|
 A|----7-10---------------------9-12----------------------------------------------------------------------|
 E|--8-----------------------10---------------------------------------------------------------------------|

[Interlude] 
(Guitar 1)
[F] [Dm] [Fmaj7] [F]  
 
 e|---/8~~~~~~~~------------------10~~~~~~~----------------10(12)-----------------13-------------------|
 B|----------------------------------------------------------------------------------------------------|
 G|----------------------------------------------------------------------------------------------------|
 D|----------------------------------------------------------------------------------------------------|
 A|----------------------------------------------------------------------------------------------------|
 E|----------------------------------------------------------------------------------------------------|

(Guitar 2)
 
 e|----------------------------------------------------------------------------------------------------|
 B|----------------------------------------------------------------------------------------------------|
 G|--2--1--2--3--2(3)(2)(3)-------2-1-2-3--3(5)3------------2-1-2-3--5-3-2-----------------2-4-5-4-----|
 D|-------------------------3---------------------3------------------------3------3-2-3-5--------------|
 A|----------------------------------------------------------------------------------------------------|
 E|----------------------------------------------------------------------------------------------------|

[Guitar Solo] 
[G] [Em] [F] (*Whammy Bar*)
 
 e|-----------------------------------------------------------------------------------------------------------|
 B|------------------------------------------------------5-7--7(8)~-7-5----5/6~~~--5/6\5--5-6---3--3\1--3-5-3*|
 G|--4--3--4--5--4------4-3-4-5--5(7)5p4----4-3-4-5--5/7------------------------------------------------------|
 D|----------------5------------------------------------------------------------------------------------------|
 A|-----------------------------------------------------------------------------------------------------------|
 E|-----------------------------------------------------------------------------------------------------------|

[G] [Em] (*Whammy Bar*)[F]
 
 e|------------------------6-8---6-7--------------------------------------------------7-8-10--8-7-----7-8-|
 B|---------------8------8-----8------8-7-6-5*--------5--5h7p5---5-7--8-7-5-7-----8/10--------------10----|
 G|--7-4---3/4--7---------------------------------------------7-------------------------------------------|
 D|------5------------------------------------------------------------------------------------------------|
 A|-------------------------------------------------------------------------------------------------------|
 E|-------------------------------------------------------------------------------------------------------|

[G] (Slowly bend up to the 12th fret)
 
 e|--7/8\7------7-----------------------------------------------------------------------------------------|
 B|---------10-------10--(11)--(12)------12\--------------------------------------------------------------|
 G|-------------------------------------------------------------------------------------------------------|
 D|-------------------------------------------------------------------------------------------------------|
 A|-------------------------------------------------------------------------------------------------------|
 E|-------------------------------------------------------------------------------------------------------|

[Outro] 
[Bb] [F] [Em]  
 
 e|----------------------------0~---0---------------------------------------------------------------------|
 B|----------------------------0~---0---------------------------------------------------------------------|
 G|----------------------------0~---0---------------------------------------------------------------------|
 D|----------------------------2~---2---------------------------------------------------------------------|
 A|----5-5-8---5/8--8-7-5-3----2~---2---------------------------------------------------------------------|
 E|--6-------------------------0~---0---------------------------------------------------------------------|


Important: The song above is NOT stored on the Chordie server. The original song is hosted at www.azchords.com. Chordie works as a search engine and provides on-the-fly formatting. Chordie does not index songs against artists'/composers' will. To remove this song please click here.

Text color:
Chord color:
Chord grids: 
Font size:    
Page size: 

Bb C D Dm Em F Fmaj7 G
Rate #1 of 3 versions

Login - add to songbook

SHARE PAGE  




You need to log in to post comments