Guitar Tabs, Chords and Lyrics
Major upgrade!! After one year development the new version of Chordie is now online! Please give feedback.


China Girl  David Bowie

(Intro) - Riff played 3 times.
 
 |-7-7-|-5-5-7-7--5--7-7-|-5-5-7-7-5-5-3-3-|-5-5--5--5---|-5-5--5--5--
 |-7-7-|-5-5-7-7--5--7-7-|-5-5-7-7-5-5-3-3-|-5-5--5--5---|-5-5--5--5--
 |-----|-----------------|-----------------|-------------|------------
 |-----|-----------------|-----------------|-------------|------------
 |-----|-----------------|-----------------|-------------|------------
 |-----|-----------------|-----------------|-------------|------------

[Em]Oh [G]oh oh [Am]oh-oh Little China
 
 |-7-7-|-5-5-7-7--5--7-7-|-5-5-7-7-5-5-3-3-|-5-5--5--5---|-5-5--5--5--
 |-7-7-|-5-5-7-7--5--7-7-|-5-5-7-7-5-5-3-3-|-5-5--5--5---|-5-5--5--5--
 |-----|-----------------|-----------------|-------------|------------
 |-----|-----------------|-----------------|-------------|------------
 |-----|-----------------|-----------------|-------------|------------
 |-----|-----------------|-----------------|-------------|------------

[Em]Girl [Em]Oh [G]oh oh [Am]oh-oh Little China [G]Girl
 
 |-7-7-|-5-5-7-7--5--7-7-|-5-5-7-7-5-5-3-3-|-5-5--5--5---|-5-5--5--5--
 |-7-7-|-5-5-7-7--5--7-7-|-5-5-7-7-5-5-3-3-|-5-5--5--5---|-5-5--5--5--
 |-----|-----------------|-----------------|-------------|------------
 |-----|-----------------|-----------------|-------------|------------
 |-----|-----------------|-----------------|-------------|------------
 |-----|-----------------|-----------------|-------------|------------

[G]I could escape this feeling [Am]with my China Girl
[G]I feel a wreck without my [Am]little China Girl
[Em]I feel her heart beating [G]loud as thunder
[Am]Saw they stars crashing[B7]
[G]I'm a mess without my [Am]little China Girl
[G]Wake up in the mornings where's my [Am]little China Girl
[Em]I hear her heart beating [G]loud as thunder
[Am]Saw they stars crashing [B7]down
[G]I feel a-tragic like I'm [F]Marlon Brando
[Em]When I look at my China [D]Girl
[G]I could pretend nothing [F]really meant too much
[Em]When I look at my China [D]Girl
[Em] [D] [C] [B]  
[Em]I stumble into town j[D]ust like a sacred cow
[C]Visions of swastikas in my head
[B]Plans for everyone
[Em]It's in the white of my [D]eyes[C] [B7]
[Em]My little China Girl
[D]You shouldn't mess with me
[C]I'll ruin everything you [B]are (you know)
[Em]I'll give you television
[D]I'll give you eyes of blue
[C]I'll give you a man who wants to [B]rule the world
[G]And when I get excited
[F]My little China Girl says
[Em]Oh baby, just you shut your [D]mouth
She says [Em]sh-sh-shhh [D]
She says [C]sh-sh-shhh [B]
(Guitar Solo)
She Says She says
[Em] [D] [C] [B] [Em] [D] [C] [B] 
(Play opening Riff to fade)
[Em]Oh [G]oh oh [Am]oh-oh Little China [Em]Girl

Important: The song above is NOT stored on the Chordie server. The original song is hosted at www.azchords.com. Chordie works as a search engine and provides on-the-fly formatting. Chordie does not index songs against artists'/composers' will. To remove this song please click here.

Text color:
Chord color:
Chord grids: 
Font size:    
Page size: 

Am B B7 C D Em F G
Rate #1 of 6 versions

Jango Player

Login - add to songbook

SHARE PAGE  



You need to log in to post comments