Guitar Tabs, Chords and Lyrics
Major upgrade!! After one year development the new version of Chordie is now online! Please give feedback.


Dead Man Walking  David Bowie

VERSE
[F]He swivels his head tears his e[G]yes from the screen
[F]As his past puts him back in Atlantic[G] City
[F]There's not even a demon in H[G]eaven or Hell
[F]Is it all just human disguise as I wa[G]lk down the aisle
CHORUS
And I'm [F]gone
Now I'm older than m[G]ovies
And I [F]know who's there
When silhouettes [G]fall
And I'm [Bb]gone
Like I'm dancing on [Dm]angels
And I'm [G#]gone through a crack in the [G]past
Like a dead man
INTRO
F - G x2
Walking
Like a dead man walking
VERSE
[F]Three old men dancing [G]under the lamplight
[F]Shaking their sex and their bones and the [G]boys that we were
[F]An alien nation in therapy sliding n[G]aked and new
[F]Like a bad tempered child on a rain slicked [G]street
CHORUS
And I'm [F]gone
Now I'm older than m[G]ovies
And I [F]know who's there
When silhouettes [G]fall
And I'm [Bb]gone
Like I'm dancing on [Dm]angels
And I'm [G#]gone through a crack in the [G]pa[/]st[D6sus4]
Like a dead man
INTRO
F - G x4
Walking
Like a dead man walking
Dead man
Dead man
Dead man
BRIDGE
[C] [D] [Em] [F#m] [G] [A] [Bm] [C]  
 
 e|-------------------------------------------------8---|
 B|-------------------------------------------------8---|
 G|---5-----7-----9-----11-----12-----14-----16-----9---|
 D|-------------------------------------------------10--|
 A|---3-----5-----7-----9------10-----12-----14---------|
 E|-----------------------------------------------------|

CHORUS
And I'm [F]go[/]ne[Fadd9]
Now I'm older than m[G]ov[/]ie[G13]s
And I [F]kn[/]ow[Fadd9] who's there
When silhouettes [G]fa[/]ll[G13]
And I'm [Bb]gone
Like I'm dancing on [Dm]ang[/]el[Dm7]s
And I'm [G#]gone through a crack in the [G]pa[/]st[D6sus4]
Like a dead man
F - G x2
Walking
Like a dead man walking
BRIDGE
[C] [D] [Em] [F#m] [G] [A] [Bm] [B] [/] [C] [C]  
 
 e|-------------------------------------------------7------8---|
 B|-------------------------------------------------8------8---|
 G|---5-----7-----9-----11-----12-----14-----16-----9------9---|
 D|-------------------------------------------------10-----10--|
 A|---3-----5-----7-----9------10-----12-----14----------------|
 E|------------------------------------------------------------| 


Important: The song above is NOT stored on the Chordie server. The original song is hosted at www.azchords.com. Chordie works as a search engine and provides on-the-fly formatting. Chordie does not index songs against artists'/composers' will. To remove this song please click here.

Text color:
Chord color:
Chord grids: 
Font size:    
Page size: 

A B Bb Bm C D D6sus4 Dm Dm7 Em F F#m Fadd9 G G#
Rate #1 of 3 versions

Login - add to songbook

SHARE PAGE  




You need to log in to post comments