Guitar Tabs, Chords and Lyrics
Major upgrade!! After one year development the new version of Chordie is now online! Please give feedback.


Moonage Daydream  David Bowie

Tuning: EADGBe
[Bm] [A] [G] [F#] [Bm] [A] [G]  
 
 E|-----------------|--------|--------|----------|---------|-------------------|12b14-12b14-12b14|
 B|-----------------|--------|--------|----------|---9-10~~|10b12~~-10b12-10b12|-----------------|
 G|-----------------|16b18~~~|16b18~~~|16b18 16b\|11-------|-------------------|-----------------|
 D|12~~--12~~--14b16|--------|--------|----------|---------|-------------------|-----------------|
 A|-----------------|--------|--------|----------|---------|-------------------|-----------------|
 E|-----------------|--------|--------|----------|---------|-------------------|-----------------|

[F#] [Bm]  
 
 E|12b14-12b14-12b14-12b14-12b14-12b14-12b14-12b14|12b14-12b14-12b14-12b14-12b14-12b14-12b14-12b14|
 B|-----------------------------------------------|-----------------------------------------------|
 G|-----------------------------------------------|-----------------------------------------------|
 D|-----------------------------------------------|-----------------------------------------------|
 A|-----------------------------------------------|-----------------------------------------------|
 E|-----------------------------------------------|-----------------------------------------------|

[A] [G]  
 
 E|12b14-12b14-12b14-12b14-12b14-12b14-12b14-12b14|12b14-12b14-12b14-12b14-12b14-12b14-12b14-12b14|
 B|-----------------------------------------------|-----------------------------------------------|
 G|-----------------------------------------------|-----------------------------------------------|
 D|-----------------------------------------------|-----------------------------------------------|
 A|-----------------------------------------------|-----------------------------------------------|
 E|-----------------------------------------------|-----------------------------------------------|

[F#] [Bm] [A] [G] [F#] [Bm] [A]  
 
 E|14b16--14b16-14b16|14b16--14b16-14b16~\|----|-------|-----------|--------------|-------------|
 B|------------------|--------------------|----|-------|-----------|--------------|12b14-12b14~~|
 G|------------------|--------------------|7~/\|-------|----------7|9~--7-9-9b11~~|-------------|
 D|------------------|--------------------|----|7h9-9~~|8-9-9/11~--|--------------|-------------|
 A|------------------|--------------------|----|-------|-----------|--------------|-------------|
 E|------------------|--------------------|----|-------|-----------|--------------|-------------|

[G] [F#] [Bm]  
 
 E|--------|--------|-----|

B|~~-12b14|12b14~~~|12b14|
 
 G|--------|--------|-----|
 D|--------|--------|-----|
 A|--------|--------|-----|
 E|--------|--------|-----|


Important: The song above is NOT stored on the Chordie server. The original song is hosted at www.azchords.com. Chordie works as a search engine and provides on-the-fly formatting. Chordie does not index songs against artists'/composers' will. To remove this song please click here.

Text color:
Chord color:
Chord grids: 
Font size:    
Page size: 

A Bm F# G
Rate #1 of 7 versions

Login - add to songbook

SHARE PAGE  



You need to log in to post comments