Guitar Tabs, Chords and Lyrics
Major upgrade!! After one year development the new version of Chordie is now online! Please give feedback.


Sound and Vision  David Bowie

Intro:
[G] [Am] [D] [G]  
 
 e|--3--5/7-3--3-5-7\5--8-7\5--5/7-----5/7------5/7-3--5/7-3------3--|
 B|--------------------------------5/7-----5/7----------------3h5----|
 G|--4--5/7-4--4-5-7\5--9-7\5--5/7-----5/7------5/7-4--5/7-4---------|
 D|--------------------------------5/7-----5/7-----------------------|
 A|------------------------------------------------------------------|
 E|------------------------------------------------------------------|

[G] [Am] [D] [G]  
 
 e|--3--5/7-3--5/7-7\5--8-7\5--5/7-----5/7------5/7-3--5-7-3------3--|
 B|--------------------------------5/7-----5/7----------------3h5----|
 G|--4--5/7-4--5/7-7\5--9-7\5--5/7-----5/7------5/7-4--5-7-4---------|
 D|--------------------------------5/7-----5/7-----------------------|
 A|------------------------------------------------------------------|
 E|------------------------------------------------------------------|

[G] [Am] [G]  
 
 e|--3--5-7-3--5/7-7\5--8-7\5--5/7-3--5/7-3--------3--|
 B|------------------------------------------3-3h5----|
 G|--4--5-7-4--5/7-7\5--9-7\5--5/7-4--5/7-4-----------|
 D|---------------------------------------------------|
 A|---------------------------------------------------|
 E|---------------------------------------------------|

[G] [Am] [G]  
 
 e|--3--5/7-3--5/7-7\5--8-7\5--5/7-3--5/7-3--|
 B|------------------------------------------|
 G|--4--5/7-4--5/7-7\5--9-7\5--5/7-4--5/7-4--|
 D|------------------------------------------|
 A|------------------------------------------|
 E|------------------------------------------|

[C] [G] [C] [G]  
 
 e|--3-7-5--5/7-5-3-3--5-5/7-5-3-3--5/7-3--5/7-3--|
 B|-----------------------------------------------|
 G|--4-7-5--5/7-5-4-4--5-5/7-5-4-4--5/7-4--5/7-4--|
 D|-----------------------------------------------|
 A|-----------------------------------------------|
 E|-----------------------------------------------|

[C] [G] [C] [G]  
 
 e|--3-5-7-3--5-5/7-5-3-3--5-5/7-5-3-3--5/7-3--5/7-3--|
 B|---------------------------------------------------|
 G|--4-5-7-4--5-5/7-5-4-4--5-5/7-5-4-4--5/7-4--5/7-4--|
 D|---------------------------------------------------|
 A|---------------------------------------------------|
 E|---------------------------------------------------|

[G] [Am] [D] [Em]  
 
 e|-------------/5------------------------0--|
 B|--------------------------/7-----------0--|
 G|-------------/5------------------------0--|
 D|--------------------------/7-----------2--|
 A|---------------------------------------2--|
 E|---------------------------------------0--|

Don't you wonder some[G]times 'bout sound and [Am]vision?[D] [G]
[G]Blue, blue, electric blue, that's the color of my room [Am]where I will live
Blue, [G]blue
[G]Pale blinds drawn all day, nothing to read, nothing to [Am]say
Blue, [G]blue
[C]I will sit [G]right down
[C]Waiting for the [G]gift of sound and vision
And [C]I will sing[G]
[C]Waiting for the [G]gift of sound and vision
Drifting in[Am]to my solitude,[D] over my [Em]head
Don't you wonder some[G]times 'bout sound and [Am]vision?[D] [G]
(Chords)
[G] [Am] [D] [C] [Em]  
 
 e|--3---5---5---3---0--|
 B|--3---5---7---5---0--|
 G|--4---5---7---5---0--|
 D|--5---7---7---5---2--|
 A|--5---7---5---3---2--|
 E|--3---5-----------0--| 


Important: The song above is NOT stored on the Chordie server. The original song is hosted at www.azchords.com. Chordie works as a search engine and provides on-the-fly formatting. Chordie does not index songs against artists'/composers' will. To remove this song please click here.

Text color:
Chord color:
Chord grids: 
Font size:    
Page size: 

Am C D Em G
Rate #1 of 3 versions

Login - add to songbook

SHARE PAGE  




You need to log in to post comments