Guitar Tabs, Chords and Lyrics
Update 25:10. 13:00. Site is back up running again. Songbooks are recovered. Woring on getting search back up..


Two Cars  Death Cab for Cutie

 
 -------------------------------------------------------------------------------

You can Play These Songs With Chords (1997/2002)
 
 -------------------------------------------------------------------------------

I tabbed this out because I feel that early DCfC is exceptionally underappreciated
and undertabbed,
especially since the guitar parts are so hard to discern in the lo-fi and often noisy
If you
want me to post more old DCfC tabs, just send me and email. This is as accurate as I
make
this song out to be.
Tuning: Standard
Tempo: Quarter = 90
E = Eighth, S = Sixteenth, Q = Quarter
*Both main verse options use the same chords, but the alternate option
utilizes a more DCfC style-crunchier tone since it's up the neck
with less open strings.
Main Verse (Option 1): Repeat 4x
[E] [E] [E] [E] [E] [E] [E] [E] [E] [E] [E] [E] [E] [E] [E] [E] 
 
 e|-----------------------------------------|-----------------------------------------|
 B|-o---6---6---6----x-----6---6---6-----6--|----6---6---0--------------------------o-|
 G|-----5---5---5----x-----5---5---5-----5--|----5---5---0----------------------------|
 D|-----0---0---0----0----(0)--x---x-----x--|----x---x---0------0-----0---------------|
 A|-o---0---0---0----0-----3---3---3-----0--|----x---x---0---2-----2-----0----------o-|
 E|-----------------------------------------|----3---3--------------------------------|

[Fadd6/A] [F/C] [F/G] 
1 & 2 & 3 & 4 & 1 & 2 & 3 & 4 &
Try to scr*pe it off, the thought of skin against skin..
Main Verse (Alternate): Repeat 4x
[E] [E] [E] [E] [E] [E] [E] [E] [E] [E] [E] [E] [E] [E] [E] [E] 
 
 e|-------------------------------------------------|--------------------------------------------|
 B|-o-----------------------------------------------|--------------0---------------------------o-|
 G|----10---10---10-----x-------10---10---10--------|---10---10----0-----------------------------|
 D|----10---10---10----10-------10---10---10--------|---10---10----0--------0-----0--------------|
 A|-o---0----0----0-----0--------x----x----x-----0--|----8----8----0------------------0--------o-|
 E|------------------------------8----8----8--------|----8----8---------7------7-----------------|

[Fadd6/A] [F/C] [F/C] 
1 & 2 & 3 & 4 & 1 & 2 & 3 & 4 &
Chorus: Repeat 2x
Let ring ........... Let Ring ...........
Q E E E E Q E E E E
 
 e|---------------0------------------|-------------0-----------------------|
 B|-o---------------------1----------|--------(0)-----------0--------------|
 G|---------------------------2---0--|----(1)------------------------------|
 D|----2--------------------------0--|-------------------------2---0-------|
 A|-o--0--------------------------0--|--2--------------------------0-------|
 E|----------------------------------|--0--------------------------0-------|

[Am] [Emaj] 
1 (& 2) & (3) & 4 & 1 (& 2) & (3) & 4 &
..fit in this auto. You....
[E] [E] [E] [E] [E] [E] [E] [E] [E] [E] [E] [E] [E] [E] [E] [E] 
 
 e|-----------------------------------|------------------------------------------------|
 B|---6---6---6---6---6---5---6---5---|---9----9----9----9----9----9----9----9------o--|
 G|---5---5---5---5---5---6---5---5---|--10---10---10---10---10---10---10---10---------|
 D|---0---0---0---0---0---0---0---0---|--10---10---10---10---10---10---10---10---------|
 A|---0---0---0---0---0---0---0---0---|---8----8----8----8----8----8----8----8------o--|
 E|-----------------------------------|------------------------------------------------|

[Fadd6/A]1 & 2 & etc.....[Fm]
Go have a good time 3rd
to End
Bridge: Repeat 8x
Guitar 1: Let ring......................
 
 e|-------------------------------|-------------------|
 B|-o---6---6------6--------------|--(6)-----------o--|
 G|-----5---5------5--------------|--(5)--------------|
 D|-----0---0------0--------------|--(0)--------------|
 A|-o---3---0------3--------------|--(3)-----------o--|
 E|-------------------------------|-------------------|

[Fadd6/C]1 & (2) & 3 4 1
[E] [E] [E] [E] [E] [E] [E] [E] [E] [E] [E] [E] [E] [E] 
Guitar 2: Repeat 8x
 
 e|-------------------------------------|---------------------------------------------|
 B|-------------------------------------|------------------------------------------o--|
 G|----12---------12---------12---------|------12-------12---------14---------14------|
 D|--------10------------10------10-----|--10------10---------/12--------12-----------|
 A|-------------------------------------|------------------------------------------o--|
 E|-------------------------------------|---------------------------------------------|

1 & (2) & (3) & 4 & 1 & 2 & 3 & 4 &
8x
D.C. Al fine
 
 |---------------------------------------------|
 |------------------------------------------o--|
 |------12------12----12-------12--------------|
 |--10------10-------------10------10----------|
 |------------------------------------------o--|
 |---------------------------------------------|

1 & 2 & 3 & 4 &
[End]  
Let ring.........
 
 e|----------------------|
 B|------9---------------|
 G|-----10---------------|
 D|-----10---------------|
 A|------8---------------|
 E|----------------------|

[Fm]  
/ ----> slide-up

Important: The song above is NOT stored on the Chordie server. The original song is hosted at www.azchords.com. Chordie works as a search engine and provides on-the-fly formatting. Chordie does not index songs against artists'/composers' will. To remove this song please click here.

Text color:
Chord color:
Chord grids: 
Font size:    
Page size: 

Am E Emaj F/C F/G Fm
Rate #2 of 2 versions

Jango Player

Login - add to songbook

SHARE PAGE  



You need to log in to post comments