Guitar Tabs, Chords and Lyrics
Server problems seems to be fixed. Chordie has been experiencing problems with songs disappearing. These issues now seems to be fixed, but still verifying the fix. If you find anything strange, please email admin@chordie.com.


From My Own True Love (Lost at Sea)  The Decemberists

INTRO
[Am] [Am]  
 
 e||0-0--|| ---0-0---0-0|---0-0--0--0 ||
 B||1-1--||o ---1-1---1-1|---1-1--1--1 o||
 G||2-2--|| ---2-2---2-2|---2-2--2--2 ||
 D||2-2--|| ---2-2---2-2|---2-2--2--2 ||
 A||0-0--||o 0-----------|0----------- o||
 E||-----|| ------0-----|------0--3-- ||

x..x..x..x.. x..x..x..x..
VERSE
[Am]Four score years
Living down in this [D]rain swept [Am]town
[Am]Sea salt tears
Swimming round as the [D]rain comes [Am]down
CHORUS
[G] Mr. Postman, do you have a [Am]letter for me?[Am/E] [D/F#]
[G] Mr. Postman, do you have a [Am]letter for me?
A [F]letter for me
From my [Am]own true love
[G]Lost at sea
[G]Lost [E/G#]at [Am]sea
INSTRUMENTAL
(accordion->gtr)
[Am]x..x..x..x.. x..x..x..x.. [D]x..x.. [Am]x..x..x..x.. x..x..x..x..
 
 e||0-----------|0-2--23-20--|5--2--|0-----------|------------|
 B||---1--------|------------|------|------------|------------|
 G||------2-----|------------|------|------------|------------|
 D||------------|------------|------|------------|------------|
 A||------------|------------|------|------------|------------|
 E||------------|------------|------|------------|------------|

[Am]x..x..x..x.. x..x..x..x.. [D]x..x.. [Am]x..x..x..x.. x..x..x..[D/F#]x..
 
 e||0-----------|0-2--23-20--|5--2--|0-----------|------------|
 B||---1--------|------------|------|------------|------------|
 G||------2-----|------------|------|------------|------------|
 D||------------|------------|------|------------|------------|
 A||------------|------------|------|------------|------------|
 E||------------|------------|------|------------|------------|

CHORUS
[G] Mr. Postman, do you have a [Am]letter for me?[Am/E] [D/F#]
[G] Mr. Postman, do you have a [Am]letter for me?
A [F]letter for me
From my [Am]own true love
[G]Lost at sea
[G]Lost [E/G#]at [Am]sea
OUTRO
[Am]x..x..x..x.. x..x..x..x.. [D]x..x.. [Am]x..x..x..x.. x..x..x..x..
 
 e|| 0-----------|0-2--23-20--|5--2--|0-----------|------------ ||
 B||o ---1--------|------------|------|------------|------------ o||
 G|| ------2-----|------------|------|------------|------------ ||
 D|| ------------|------------|------|------------|------------ ||
 A||o ------------|------------|------|------------|------------ o||
 E|| ------------|------------|------|------------|------------ || (4x)

(end with floor tom thumping a beat)

Important: The song above is NOT stored on the Chordie server. The original song is hosted at www.azchords.com. Chordie works as a search engine and provides on-the-fly formatting. Chordie does not index songs against artists'/composers' will. To remove this song please click here.

Text color:
Chord color:
Chord grids: 
Font size:    
Page size: 

Am Am/E D D/F# E/G# F G
Rate #1 of 6 versions

Login - add to songbook

SHARE PAGE  



You need to log in to post comments