Guitar Tabs, Chords and Lyrics
Server problems seems to be fixed. Chordie has been experiencing problems with songs disappearing. These issues now seems to be fixed, but still verifying the fix. If you find anything strange, please email admin@chordie.com.


All I Got Is You  Deep Purple

[Intro] - [ mainly organ cbords]
[Em] [C] [Am]  
 
 e|--12----------------|--12----------------|--12----------------|
 B|--12----------------|--13----------------|--13----------------|
 G|--12----------------|--12----------------|--14----------------|
 D|--------------------|--------------------|--------------------|
 A|--------------------|--------------------|--------------------|
 E|--------------------|--------------------|--------------------|

Gtr. enters
[Em] [B7] [Em] [C]  
 
 e|--15------------14------------|--12----------------|--12----------------|
 B|--17------------16------------|--12----------------|--13----------------|
 G|--16------------14------------|--12----------------|--12----------------|
 D|------------------------------|--------------------|--------------------|
 A|------------------------------|--------------------|--------------------|
 E|------------------------------|--------------------|--------------------|

[Am] [Em] [B7] [Em]  
 
 e|--12----------------|--15------------14------------|--12----------------|
 B|--13----------------|--17------------16------------|--12----------------|
 G|--14----------------|--16------------14------------|--12----------------|
 D|--------------------|------------------------------|--------------------|
 A|--------------------|------------------------------|--------------------|
 E|--------------------|------------------------------|--------------------|

[C] [Am] [Em] [B7]  
 
 e|--12----------------|--12----------------|--15------------14------------|
 B|--13----------------|--13----------------|--17------------16------------|
 G|--12----------------|--14----------------|--16------------14------------|
 D|--------------------|--------------------|------------------------------|
 A|--------------------|--------------------|------------------------------|
 E|--------------------|--------------------|------------------------------|

[Em] [C] [Am]  
 
 e|--12----------------|--12----------------|--12----------------|
 B|--12----------------|--13----------------|--13----------------|
 G|--12----------------|--12----------------|--14----------------|
 D|--------------------|--------------------|--------------------|
 A|--------------------|--------------------|--------------------|
 E|--------------------|--------------------|--------------------|

[Em] [B7] [Em]  
 
 e|--15------------14------------|--0----------------|--0----------------|
 B|--17------------16------------|--0----------------|--0----------------|
 G|--16------------14------------|--0----------------|--0----------------|
 D|------------------------------|-------------------|-------------------|
 A|------------------------------|-------------------|-------------------|
 E|------------------------------|-------------------|-------------------|

.drums enters
[Em]  
 
 e|--0----------------|--0----------------|--0----------------|--0----------------|
 B|--0----------------|--0----------------|--0----------------|--0----------------|
 G|--0----------------|--0----------------|--0----------------|--0----------------|
 D|-------------------|-------------------|-------------------|-------------------|
 A|-------------------|-------------------|-------------------|-------------------|
 E|-------------------|-------------------|-------------------|-------------------|

[C] [Am]  
 
 e|--0----------------|--0----------------|--0----------------|--0----------------|
 B|--1----------------|--1----------------|--1----------------|--1----------------|
 G|--0----------------|--0----------------|--2----------------|--2----------------|
 D|-------------------|-------------------|-------------------|-------------------|
 A|-------------------|-------------------|-------------------|-------------------|
 E|-------------------|-------------------|-------------------|-------------------|

B7 [Verse 1]
[Em] [Em]  
 
 e|--3----------------|--2----------------||---0----------------|
 B|--5----------------|--4----------------||---0----------------|
 G|--4----------------|--2----------------||*--0----------------|
 D|-------------------|-------------------||*-------------------|
 A|-------------------|-------------------||--------------------|
 E|-------------------|-------------------||--------------------|

[C] [Am]  
 
 e|--0----------------|--0----------------|--0----------------|--0----------------|
 B|--0----------------|--1----------------|--1----------------|--1----------------|
 G|--0----------------|--0----------------|--0----------------|--2----------------|
 D|-------------------|-------------------|-------------------|-------------------|
 A|-------------------|-------------------|-------------------|-------------------|
 E|-------------------|-------------------|-------------------|-------------------|

[B7] 
[C] [Em] x2
 
 e|--0----------------|--3----------------|--2-----------------||
 B|--1----------------|--5----------------|--4-----------------||
 G|--2----------------|--4----------------|--2----------------*||
 D|-------------------|-------------------|-------------------*||
 A|-------------------|-------------------|--------------------||
 E|-------------------|-------------------|--------------------||

[E5] [G5] [A5] [G5] [E5] [G5]  
 
 e|---------------------|--------------------|--------------------|
 B|---------------------|--------------------|--------------------|
 G|*--------------------|--------------------|--------------------|
 D|*-----------5--------|--7--------5--------|-----------5--------|
 A|---2--------5--------|--7--------5--------|--2--------5--------|
 E|---0-----------------|--------------------|--0-----------------|

A5 G5 [Verse 2]
[Em]  
 
 e|---------------------||---0----------------|--0----------------|
 B|---------------------||---0----------------|--0----------------|
 G|--------------------*||*--0----------------|--0----------------|
 D|--7--------5--------*||*-------------------|-------------------|
 A|--7--------5---------||--------------------|-------------------|
 E|---------------------||--------------------|-------------------|

[C] [Am]  
 
 e|--0----------------|--0----------------|--0----------------|--0----------------|
 B|--1----------------|--1----------------|--1----------------|--1----------------|
 G|--0----------------|--0----------------|--2----------------|--2----------------|
 D|-------------------|-------------------|-------------------|-------------------|
 A|-------------------|-------------------|-------------------|-------------------|
 E|-------------------|-------------------|-------------------|-------------------|

[Interlude] 
G B7 (x2) E5 G5
 
 e|--3----------------|--2-----------------||---------------------|
 B|--5----------------|--4-----------------||---------------------|
 G|--4----------------|--2----------------*||*--------------------|
 D|-------------------|-------------------*||*-----------5--------|
 A|-------------------|--------------------||---2--------5--------|
 E|-------------------|--------------------||---0-----------------|

[A5] [G5] [E5] [G5] [A5] [G5] 4x
 
 e|--------------------|--------------------|---------------------||
 B|--------------------|--------------------|---------------------||
 G|--------------------|--------------------|--------------------*||
 D|--7--------5--------|-----------5--------|--7--------5--------*||
 A|--7--------5--------|--2--------5--------|--7--------5---------||
 E|--------------------|--0-----------------|---------------------||

Something...
[Bm] [G] [A]  
 
 e|-------------------|-------------------|-------------------|
 B|--3----------------|-------------------|--2----------------|
 G|--4----------------|--4----------------|--2----------------|
 D|--4----------------|--5----------------|--2----------------|
 A|--2----------------|--5----------------|--0----------------|
 E|-------------------|--3----------------|-------------------|

[A] [F#5] [A] [Bm] [D] [D] 
 
 e|---------------------|-------------------|--------------------|
 B|--2------------------|--3----------------|--7-----------------|
 G|--2------------------|--4----------------|--7-----------------|
 D|--2--------4----7----|--4----------------|--7--------4--------|
 A|--0--------4----7----|--2----------------|--5--------5--------|
 E|-----------2----5----|-------------------|-----------2--------|

can you...
[A] [A] [E5] [G]  
 
 e|-------------------|-------------------|-------------------|-------------------|
 B|--2----------------|--2----------------|-------------------|-------------------|
 G|--2----------------|--2----------------|-------------------|--4----------------|
 D|--2----------------|--2----------------|--2----------------|--5----------------|
 A|--0----------------|--0----------------|--2----------------|--5----------------|
 E|-------------------|-------------------|--0----------------|--3----------------|

[A] [A] [F#5] [A] [Bm]  
 
 e|-------------------|---------------------|-------------------|
 B|--2----------------|--2------------------|--3----------------|
 G|--2----------------|--2------------------|--4----------------|
 D|--2----------------|--2--------4----7----|--4----------------|
 A|--0----------------|--0--------4----7----|--2----------------|
 E|-------------------|-----------2----5----|-------------------|

[D] [A]  
 
 e|--------------------|-------------------|-------------------|
 B|--3-----------------|-------------------|-------------------|
 G|--2-----------------|-------------------|-------------------|
 D|--4--------4--------|--2----------------|--2----------------|
 A|--5--------5--------|--0----------------|--0----------------|
 E|-----------2--------|-------------------|-------------------|

[Bridge] 
 
 e|------------------------------|--------------------|--------------------|
 B|------------------------------|--------------------|--------------------|
 G|------------------------------|--------------------|--2--------5--------|
 D|------------------------------|-----------4--------|--------------------|
 A|---------------------2--------|--5-----------------|--------------------|
 E|--3---------------------------|--------------------|--------------------|

[Keyboard Solo] 
[Bm]  
 
 e|-----------3--------||--------------------|-------------------|
 B|--5-----------------||---3----------------|--3----------------|
 G|--------------------||*--4----------------|--4----------------|
 D|--------------------||*--4----------------|--4----------------|
 A|--------------------||---2----------------|--2----------------|
 E|--------------------||--------------------|-------------------|

[Guitar Solo-Section] 
4x F#
 
 e|-------------------|--------------------||----------------------|
 B|--3----------------|--3-----------------||----------------------|
 G|--4----------------|--4----------------*||----------------------|
 D|--4----------------|--4----------------*||--4-------------------|
 A|--2----------------|--2-----------------||--4-------------------|
 E|-------------------|--------------------||--2-------------------|

[A] [E] [E] [C#] [7]  
 
 e|-------------------|-------------------|-- -------------------|
 B|-------------------|-------------------|---------------------|
 G|-------------------|-------------------|-----------6----9----|
 D|--7----------------|--2----------------|--2--------6----9----|
 A|--7----------------|--2----------------|--2--------4----7----|
 E|--5----------------|--0----------------|--0------------------|

[F#] [E] [A] [E]  
 
 e|-------------------|--------------------|-------------------|
 B|-------------------|--------------------|-------------------|
 G|-------------------|--------------------|-------------------|
 D|--4----------------|--2--------7--------|--2----------------|
 A|--4----------------|--2--------7--------|--2----------------|
 E|--2----------------|--0--------5--------|--0----------------|

[E] [D] [D9] [E]  
 
 e|-------------------|-------------------|-------------------|-------------------|
 B|-------------------|-------------------|--5----------------|-------------------|
 G|-------------------|--7----------------|-------------------|--9----------------|
 D|--2----------------|--7----------------|--7----------------|--9----------------|
 A|--2----------------|--5----------------|--5----------------|--7----------------|
 E|--0----------------|-------------------|-------------------|-------------------|

[E] [C#] [E] [F#] [E] [A]  
 
 e|---------------------|-------------------|--------------------|
 B|---------------------|-------------------|--------------------|
 G|---------------------|-------------------|--------------------|
 D|--9--------6----9----|--4----------------|--2--------7--------|
 A|--7--------4----7----|--4----------------|--2--------7--------|
 E|---------------------|--2----------------|--0--------5--------|

[Bridge- Em] 
[E]  
 
 e|-------------------|-------------------|--0----------------|--0----------------|
 B|-------------------|-------------------|--0----------------|--0----------------|
 G|-------------------|-------------------|--0----------------|--0----------------|
 D|--2----------------|--2----------------|--2----------------|--2----------------|
 A|--2----------------|--2----------------|--2----------------|--2----------------|
 E|--0----------------|--0----------------|--0----------------|--0----------------|

[Verse 3] 
[Em] [Em]  
 
 e|--0----------------|--0----------------||---0-----------------|
 B|--0----------------|--0----------------||---0-----------------|
 G|--0----------------|--0----------------||*--0-----------------|
 D|--2----------------|--2----------------||*--2-----------------|
 A|--2----------------|--2----------------||---2-----------------|
 E|--0----------------|--0----------------||---0------------2----|
 |----3----| 

[G] [C]  
 
 e|--3-----------------------|-------------------|---------------------|
 B|--3-----------------------|--1----------------|--1------------------|
 G|--4-----------------------|--0----------------|--0------------------|
 D|--5-----------------------|--2----------------|--2------------------|
 A|--5-----------------------|--3----------------|--3--------3----2----|
 E|--3--------L----5----7----|-------------------|---------------------|

[Am] [G]  
 
 e|-------------------|-------------------|-------------------|
 B|--1----------------|--1----------------|-------------------|
 G|--2----------------|--2----------------|--4----------------|
 D|--2----------------|--2----------------|--5----------------|
 A|--0----------------|--0----------------|--5----------------|
 E|-------------------|-------------------|--3----------------|

[E5] [G5] [A5] [G5] 
[B7]  
 
 e|--------------------||---------------------|--------------------|
 B|--------------------||---------------------|--------------------|
 G|--4----------------*||*--------------------|--------------------|
 D|--4----------------*||*-----------5--------|--7--------5--------|
 A|--2-----------------||---2--------5--------|--7--------5--------|
 E|--------------------||---0-----------------|--------------------|

[E5] [G5] [A5] [G5] 4x
 
 e|--------------------|---------------------||-----------------------------|
 B|--------------------|---------------------||-----------------------------|
 G|--------------------|--------------------*||-----------------------------|
 D|-----------5--------|--7--------5--------*||-----------------------------|
 A|--2--------5--------|--7--------5---------||--------------------2--------|
 E|--0-----------------|---------------------||--3--------------------------|
 e|--------------------|--------------------|-----------3--------|
 B|--------------------|--------------------|--5-----------------|
 G|--------------------|--2--------5--------|--------------------|
 D|-----------4--------|--------------------|--------------------|
 A|--5-----------------|--------------------|--------------------|
 E|--------------------|--------------------|--------------------|

[E]  
 
 e|--------------------||
 B|--------------------||
 G|--------------------||
 D|--2-----------------||
 A|--2-----------------||
 E|--0-----------------|| 


Important: The song above is NOT stored on the Chordie server. The original song is hosted at www.azchords.com. Chordie works as a search engine and provides on-the-fly formatting. Chordie does not index songs against artists'/composers' will. To remove this song please click here.

Text color:
Chord color:
Chord grids: 
Font size:    
Page size: 

A A5 Am B7 Bm C C# D D9 E E5 Em F# F#5 G G5
Rate #1 of 2 versions

Login - add to songbook

SHARE PAGE  




You need to log in to post comments