Guitar Tabs, Chords and Lyrics
Major upgrade!! After one year development the new version of Chordie is now online! Please give feedback.


Sail Away  Deep Purple

Gtr I (E A D G B E) - 'Ritchie Blackmore - Electric Guitar 1'
Gtr II (E A D G B E) - 'Ritchie Blackmore - Electric Guitar 2'
Gtr III (E A D G B E) - 'Ritchie Blackmore - Electric Guitar 3'
Intro
Q=100
N.C.
[4/4] Gtr I
E E E E E E S S S S E E E E S S E Q E E E E E E S S S S
 
 |---------------------|------------------|----------------------|
 |---------------------|------------------|----------------------|
 |-----0---------------|-----0------------|-----0----------------|
 |---2---2---2-----0h2-|---2---2-----0----|---2---2---2-----0h2--|
 |-------------0h2-----|---------0h2------|-------------0h2------|
 |-0-------0-----------|-0-------------3--|-0-------0------------|

E E E E S S S S E E E E E E E E S S S S E E E E S S E Q
 
 |---------------------|---------------------|------------------|
 |---------------------|---------------------|------------------|
 |-----0---2h3p2p0-----|-----0---------------|-----0------------|
 |---2---2-----------0-|---2---2---2-----0h2-|---2---2-----0----|
 |-----------------2---|-------------0h2-----|---------0h2------|
 |-0-------------------|-0-------0-----------|-0-------------3--|

E E E E E E S S S S E E E E E E Q
 
 |---------------------|----------------|
 |---------------------|----------------|
 |-----0---------------|-----0----------|
 |---2---2---2-----0h2-|---2---2--------|
 |-------------0h2-----|---------2-0----|
 |-0-------0-----------|-0-----------3--|

1st & 2nd Verses
N.C.
E E E E E E S S S S E E E E S S E Q
 
 ||----------------------|-------------------|
 ||o---------------------|-------------------|
 ||------0---------------|-----0-------------|
 ||----2---2---2-----0h2-|---2---2-----0-----|
 ||o-------------0h2-----|---------0h2-------|
 ||--0-------0-----------|-0-------------3---|

E E E E E E S S S S E E E E E E Q
 
 |---------------------|----------------|
 |---------------------|----------------|
 |-----0---------------|-----0----------|
 |---2---2---2-----0h2-|---2---2--------|
 |-------------0h2-----|---------2-0----|
 |-0-------0-----------|-0-----------3--|

E E E E E E S S S S E E E E S S E Q
 
 |---------------------|-------------------|
 |---------------------|-------------------|
 |-----0---------------|-----0-------------|
 |---2---2---2-----0h2-|---2---2-----0-----|
 |-------------0h2-----|---------0h2-------|
 |-0-------0-----------|-0-------------3---|

E E E E E E S S S S E E E E E E Q
 
 |---------------------|----------------|
 |---------------------|----------------|
 |-----0---------------|-----0----------|
 |---2---2---2-----0h2-|---2---2--------|
 |-------------0h2-----|---------2-0----|
 |-0-------0-----------|-0-----------3--|

E E E E E E S S S S E E E E S S E Q
 
 |---------------------|-------------------|
 |---------------------|-------------------|
 |-----0---------------|-----0-------------|
 |---2---2---2-----0h2-|---2---2-----0-----|
 |-------------0h2-----|---------0h2-------|
 |-0-------0-----------|-0-------------3---|

E E E E E E S S S S E E E E E E Q
 
 |---------------------|----------------|
 |---------------------|----------------|
 |-----0---------------|-----0----------|
 |---2---2---2-----0h2-|---2---2--------|
 |-------------0h2-----|---------2-0----|
 |-0-------0-----------|-0-----------3--|

E E E E E E S S S S E E E E S S E Q
 
 |---------------------|-------------------|
 |---------------------|-------------------|
 |-----0---------------|-----0-------------|
 |---2---2---2-----0h2-|---2---2-----0-----|
 |-------------0h2-----|---------0h2-------|
 |-0-------0-----------|-0-------------3---|

Pre-Chorus
N.C.
E E E E E E S S S S E E E E E E Q Q Q E E Q E E Q E E Q
 
 |---------------------|----------------||--------------|-----------------|
 |---------------------|----------------||--------------|-----------------|
 |-----0---------------|-----0----------||----4------2--|-----------------|
 |---2---2---2-----0h2-|---2---2--------||--------------|-----5------5----|
 |-------------0h2-----|---------2-0----||-2-----0-0----|-----------------|
 |-0-------0-----------|-0-----------3--||--------------|-3-3----3-3------|

Chorus
$
N.C.
H H H E E S S E E E E E E E E E E E E S S S S E E E
 
 |-----------|----------------||-----------------|----------------------|
 |-----------|----------------||-----------------|----------------------|
 |-----------|----------5p4h5-||-----2-------2---|-----0----------------|
 |-2----0----|----------------||-----------------|---2---2---0-0-----2--|
 |-----------|-3------3-------||-0-0-----0-0-----|---------2-----2------|
 |-----------|----------------||-----------------|-0---------------0----|

E E E E E E E E E E E S S S S E E E
 
 |-----------------|---------------------|
 |-----------------|---------------------|
 |-----2-------2---|-----0---------------|
 |-----------------|---2---2---0-0-----2-|
 |-0-0-----0-0-----|---------2-----2-----|
 |-----------------|-0---------------0---|

E E E E E E E E E E E S S S S E E E
 
 |-----------------|---------------------|
 |-----------------|---------------------|
 |-----2-------2---|-----0---------------|
 |-----------------|---2---2---0-0-----2-|
 |-0-0-----0-0-----|---------2-----2-----|
 |-----------------|-0---------------0---|

To Coda
G5 A5 N.C.
H Q Q Q Q E E Q E E Q E E E E H H
 
 |------------|--------------|----------------|-----------|
 |------------|--------------|----------------|-----------|
 |------2-----|----4---------|----------------|-4----2----|
 |-5----2-----|--------------|----------------|-----------|
 |-5----0-----|-2-----2-2----|-2-2----2-2-2---|-----------|
 |-3----------|--------------|----------------|-----------|

Interlude
1.
N.C.
H H E E E E E E S S S S E E E E S S E Q E E E E E E S S S S
 
 |-----------||---------------------|------------------|----------------------|
 |-----------||---------------------|------------------|----------------------|
 |-0---------||-----0---------------|-----0------------|-----0----------------|
 |------4----||---2---2---2-----0h2-|---2---2-----0----|---2---2---2-----0h2--|
 |-----------||-------------0h2-----|---------0h2------|-------------0h2------|
 |-----------||-0-------0-----------|-0-------------3--|-0-------0------------|

2.
E E E E S S S S E E E E E E E E S S S S
 
 |----------------------||---------------------|
 |---------------------o||---------------------|
 |-----0---2h3p2p0------||-----0---------------|
 |---2---2-----------0--||---2---2---2-----0h2-|
 |-----------------2---o||-------------0h2-----|
 |-0--------------------||-0-------0-----------|

E E E E S S E Q E E E E E E S S S S
 
 |------------------|-----------------------|
 |------------------|-----------------------|
 |-----0------------|-----0-----------------|
 |---2---2-----0----|---2---2---2-----0h2---|
 |---------0h2------|-------------0h2-------|
 |-0-------------3--|-0-------0-------------|

E E E E E E Q E E E E E E S S S S
 
 |----------------|---------------------|
 |----------------|---------------------|
 |-----0----------|-----0---------------|
 |---2---2--------|---2---2---2-----0h2-|
 |---------2-0----|-------------0h2-----|
 |-0-----------3--|-0-------0-----------|

E E E E S S E Q E E E E E E S S S S
 
 |------------------|----------------------|
 |------------------|----------------------|
 |-----0------------|-----0----------------|
 |---2---2-----0----|---2---2---2-----0h2--|
 |---------0h2------|-------------0h2------|
 |-0-------------3--|-0-------0------------|

Guitar Solo
N.C.
E E E E E E Q Q Q Q Q Q Q Q Q Q Q E E Q
 
 |-----------------||--------------------|--------------|-----------------|
 |-----------------||--------------------|--------------|-----------------|
 |-----0-----------||------4-------------|--------------|-----4--------2--|
 |---2---2---------||---------------7----|----5-----5---|-----------------|
 |---------2-0-----||-2------------------|--------------|--2------0-0-----|
 |-0-----------3---||---------5----------|-3-----3------|-----------------|

|
| Gtr II
| H Q E E E Q. E. S +E E H Q E E H Q Q
 
 |-----------------||--------------------|--------------|-----------------|
 |-------------3-5-||-5s7-----5--7-(7)s5-|-3-----8s=7-8-|-12-----10s==12--|
 |-----------------||--------------------|--------------|-----------------|
 |-----------------||--------------------|--------------|-----------------|
 |-----------------||--------------------|--------------|-----------------|
 |-----------------||--------------------|--------------|-----------------|

|
| Gtr III
| H Q E E E Q. E. S +E E H Q Q H Q Q
 
 |-----------------||--------------------|--------------|-----------------|
 |-----------------||--------------------|--------------|-----------------|
 |-------------4-6-||-6s7-----6--7-(7)s6-|-4-----7s=6---|-11------9s==11--|
 |-----------------||--------------------|--------------|-----------------|
 |-----------------||--------------------|--------------|-----------------|
 |-----------------||--------------------|--------------|-----------------|

Interlude
N.C.
E E H. E E E E E E E E
 
 |----------------------||---------------------|
 |----------------------||---------------------|
 |----------------------||---------2-------2---|
 |----------5-----------||---------------------|
 |----------------------||-----0-0-----0-0-----|
 |-----3--3-------------||---------------------|

|
| H. E E a W
 
 |----10-------------10-||-10s12---------------|
 |----------------12----||---------------------|
 |----------------------||---------------------|
 |----------------------||---------------------|
 |----------------------||---------------------|
 |----------------------||---------------------|

|
| a H. E E a W
 
 |-------------------10-||---------------------|
 |----------------12----||---------------------|
 |-11s12----------------||-12s14---------------|
 |----------------------||---------------------|
 |----------------------||---------------------|
 |----------------------||---------------------|

E E E S S S S E E E E E E E E E E E
 
 |---------------------|-----------------|
 |---------------------|-----------------|
 |-----0---------------|-----2-------2---|
 |---2---2---0-0-----2-|-----------------|
 |---------2-----2-----|-0-0-----0-0-----|
 |-0---------------0---|-----------------|

|
| W W
 
 |---------------------|-----------------|
 |---------------------|-----------------|
 |---------------------|-----------------|
 |---------------------|-----------------|
 |---------------------|-----------------|
 |---------------------|-----------------|

|
| W W
 
 |---------------------|-----------------|
 |---------------------|-----------------|
 |---------------------|-----------------|
 |---------------------|-----------------|
 |---------------------|-----------------|
 |---------------------|-----------------|

E E E S S S S E E E E E E E E E E E E E E S S S S E E E [G5]H [A5]Q Q
 
 |---------------------|-----------------|---------------------|------------|
 |---------------------|-----------------|---------------------|------------|
 |-----0---------------|-----2-------2---|-----0---------------|------2-----|
 |---2---2---0-0-----2-|-----------------|---2---2---0-0-----2-|-5----2-----|
 |---------2-----2-----|-0-0-----0-0-----|---------2-----2-----|-5----0-----|
 |-0---------------0---|-----------------|-0---------------0---|-3----------|

D.S. al Coda
N.C.
Q Q E E E E E E E E E E E E H H H H
 
 |---------------|-----------------|-----------|-----------||
 |---------------|-----------------|-----------|-----------||
 |----4----------|-----------------|-4----2----|-0---------||
 |---------------|-----------------|-----------|------4----||
 |-2-----2---2---|-2---2---2---2---|-----------|-----------||
 |---------------|-----------------|-----------|-----------||

&
N.C.
Q Q E E Q E E E E E E E E Q Q Q Q
 
 |--------------|-----------------|-------------|
 |--------------|-----------------|-------------|
 |----4---------|-----4-------4---|-------------|
 |--------------|-----------------|-------------|
 |-2-----2-2----|-2-2-----2-2-----|-2-----3-----|
 |--------------|-----------------|-------------|

|
| Gtr II
| W W W
 
 |--------------|-----------------|-------------|
 |--------------|-----------------|-------------|
 |--------------|-----------------|-------------|
 |--------------|-----------------|-------------|
 |--------------|-----------------|-------------|
 |--------------|-----------------|-------------|

Outro
N.C.
Q Q Q Q E E E E E E S S S S
 
 |-------------||----------------------|
 |-------------||----------------------|
 |-------------||-----0----------------|
 |-0-----1-----||---2---2---2-----0h2--|
 |-------------||-------------0h2------|
 |-------------||-0-------0------------|

|
| H Q Q W
 
 |-------------||----------------------|
 |-------------||----------------------|
 |----------4s=||=7--------------------|
 |-------------||----------------------|
 |-------------||----------------------|
 |-------------||----------------------|

E E E E S S E Q E E E E E E S S S S
 
 |-----------------------|---------------------|
 |-----------------------|---------------------|
 |-------0---------------|-----0---------------|
 |-----2---2-----0-------|---2---2---2-----0h2-|
 |-----------0h2---------|-------------0h2-----|
 |--0----------------3---|-0-------0-----------|

|
 
 | |----3----|

| +H Q Q Q W
 
 |-----------------------|---------------------|
 |-----------------------|---------------------|
 |-(7)-------5s====7s==5-|-4-------------------|
 |-----------------------|---------------------|
 |-----------------------|---------------------|
 |-----------------------|---------------------|

E E E E E E Q E E E E E E S S S S
 
 |--------------------|---------------------------|
 |--------------------|---------------------------|
 |-------0-----4-2-0--|---------0-----------------|
 |-----2---2----------|-------2---2---2-----0h2---|
 |--------------------|-----------------0h2-------|
 |--0-----------------|-----0-------0-------------|

|
| +H H a W
 
 |--------------------|---------------------------|
 |--------------------|---------------------------|
 |-(4)-------/11------|-11s12---------------------|
 |--------------------|---------------------------|
 |--------------------|---------------------------|
 |--------------------|---------------------------|

E E E E S S E Q E E E E E E S S S S
 
 |-----------------------------|----------------------|
 |-----------------------------|----------------------|
 |---------0-------------------|------0---------------|
 |------2-----2---------0------|----2---2---2-----0h2-|
 |------------------0h2--------|--------------0h2-----|
 |---0--------------------3----|--0-------0-----------|

|
| +Q E E a Q. E Q Q H
 
 |-----------------------------|----------------------|
 |-----------------------------|----------------------|
 |-(12)---11s12-12s14-------12s|=11-------------------|
 |-----------------------------|----------------------|
 |-----------------------------|----------------------|
 |-----------------------------|----------------------|

E E E E E E Q E E E E E E S S S S
 
 |------------------------|-------------------------|
 |------------------------|-------------------------|
 |-----0------------------|------0------------------|
 |---2----2---------------|----2----2---2-----0h2---|
 |--------------2-0-------|---------------0h2-------|
 |-0-----------------3----|--0--------0-------------|

|
| Q E E a Q E E Q H.
 
 |------------------------|-------------------------|
 |------------------------|-------------------------|
 |-----9s11-11s12s==11-12s|=11---7------------------|
 |------------------------|-------------------------|
 |------------------------|-------------------------|
 |------------------------|-------------------------|

E E E E S S E Q E E E E E E S S S S
 
 |--------------------|---------------------|
 |--------------------|---------------------|
 |-------0------------|-----0---------------|
 |-----2---2-----0----|---2---2---2-----0h2-|
 |-----------0h2------|-------------0h2-----|
 |--0--------------3--|-0-------0-----------|

|
| +Q. E Q Q W
 
 |--------------------|---------------------|
 |--------------------|---------------------|
 |-(7)-----5s7s====9--|-4-------------------|
 |--------------------|---------------------|
 |--------------------|---------------------|
 |--------------------|---------------------|

E E E E E E Q E E E E E E S S S S
 
 |-------------------|------------------------|
 |-------------------|------------------------|
 |-------0-----------|------0-----------------|
 |-----2---2---------|----2---2---2------0h2--|
 |-----------2-0-----|---------------0h2------|
 |--0------------3---|-0--------0-------------|

|
| +H E Q E H. Q
 
 |-------------------|------------------------|
 |-------------------|------------------------|
 |-(4)-------2s4---5s|=9------------11--------|
 |-------------------|------------------------|
 |-------------------|------------------------|
 |-------------------|------------------------|

E E E E S S E Q E E E E E E E E
 
 |-----------------------|--------------------|
 |-----------------------|--------------------|
 |--------0--------------|------0-------------|
 |------2---2------0-----|---2-------2----0-2-|
 |-------------0h2-------|--------2-----------|
 |---0---------------3---|-0------------0-----|

|
| +H E Q E E Q. +Q. E
 
 |-----------------------|--------------------|
 |-----------------------|------------------8s|
 |-(12)-------11s==9s==7-|-7-9------(9)-------|
 |-----------------------|--------------------|
 |-----------------------|--------------------|
 |-----------------------|--------------------|

E E E E E E Q E E E E E E E E
 
 |--------------------|---------------------------|
 |--------------------|---------------------------|
 |--------------------|-------------0---0---------|
 |------2-0-2---------|-------2-------2---2--0-2--|
 |-------------0------|---------------------------|
 |--0------------3----|-----0---------------------|

|
| H E E E E a Q a H E E
 
 |--------------------|---------------------------|
 |-12---------11s8s11-|-11s12---11s12-------11s8--|
 |--------------------|---------------------------|
 |--------------------|---------------------------|
 |--------------------|---------------------------|
 |--------------------|---------------------------|

E E E E S S E Q E E E E E E E E
 
 |-----------------------|----------------------|
 |-----------------------|----------------------|
 |---0-------------------|------------0---------|
 |-----0--2--------0-----|-----0-2-------2--0-2-|
 |------------0h=2-------|----------------------|
 |-0-----------------3---|---0------0-----------|

|
| E Q E +E Q E Q E E Q E E
 
 |-----------------------|----------------------|
 |-7s8s==11-(11)---8s==7-|-/11---8s11-7/---11s8-|
 |-----------------------|----------------------|
 |-----------------------|----------------------|
 |-----------------------|----------------------|
 |-----------------------|----------------------|

S S E E E a E E Q E E S S E E E E E
 
 |----------------------------|-----------------------------|
 |----------------------------|-----------------------------|
 |-------0--------------------|---------3p2p===0------------|
 |---------2------------------|----2----------------0-2-----|
 |--0h=2--------0h2-0---------|-----------------------------|
 |------------0----------3----|--0----------------0-----0---|

|
 
 | |----3----| |-----3-----|

| Q E E Q Q Q Q Q Q H
 
 |----------------------------|-----------------------------|
 |-12\-----8s11---8s==17s==16-|-17s==13s====16---12---------|
 |----------------------------|-----------------------------|
 |----------------------------|-----------------------------|
 |----------------------------|-----------------------------|
 |----------------------------|-----------------------------|

E E E E S S S S E E
 
 |----------------------------|
 |----------------------------|
 |--0-----------2h3p2p0-------|
 |-----2--0--2--------------0-|
 |-----------------------2----|
 |----------------------------|

|
| E E E E Q E E
 
 |----------------------------|
 |-------12-13s12-------10-12s|
 |-12s14----------------------|
 |----------------------------|
 |----------------------------|
 |----------------------------|

E E S S S S E E E E E E E E E E E E
 
 |-----------------------------|-------------------------*|
 |-----------------------------|-------------------------*|
 |-------2h3p=2p0--------------|--0----------------------*|
 |----2----------------0-----0-|----2-----2---0----------*|
 |------------------2----------|-----------------2-------*|
 |--0---------------------0----|-------0------------3--3-*|

|
| Q E E +Q E E Q E E +E E E E
 
 |-----------------------------|-11----------------------*|
 |-16---13s==17---(17)---15-13-|-11----------------------*|
 |-----------------------------|------12-11-(11)-9-11-12-*|
 |-----------------------------|-------------------------*|
 |-----------------------------|-------------------------*|
 |-----------------------------|-------------------------*|s 


Important: The song above is NOT stored on the Chordie server. The original song is hosted at www.azchords.com. Chordie works as a search engine and provides on-the-fly formatting. Chordie does not index songs against artists'/composers' will. To remove this song please click here.

Text color:
Chord color:
Chord grids: 
Font size:    
Page size: 

A5 G5
Rate #1 of 1 versions

Jango Player

Login - add to songbook

SHARE PAGE  



You need to log in to post comments