Guitar Tabs, Chords and Lyrics
Server problems seems to be fixed. Chordie has been experiencing problems with songs disappearing. These issues now seems to be fixed, but still verifying the fix. If you find anything strange, please email admin@chordie.com.


Ik wil je  De Kreuners

[Am] [Am]  
 
 E -----------------|-----------------|-----------------|-----------------------|
 B -----------------|-----------------|-----------------|-----------------------|
 G -----------------|-----------------|-----------------|-----------------------| (Strofe)
 D -----------------|-----------------|-----------------|-----------------------|
 A -----------------|-----------------|-----------------|-----------------------|
 E -5-5-0-0-3-3-5-5-|-5-5-0-0-3-3-5-5-|-5-5-0-0-3-3-5-5-|-5-5-8-8-7-7-5-5-------|

Ze likt aan der glas terwijl ze naar hem lacht.
Hij stapt op haar toe ze had het wel verwacht
Morgen heeft ze spijt dat weet ze al te goed!
Toch doet ze het opnieuw en opnieuw en opnieuw en opnieuw !
[F]Wie kan het wat schelen, [G]zo zijn er zovelen
[C]Ik wil je, [Am]blijf bij me, [F]hou van me, [G]ga nooit meer [C]weg.
[C]Ik wil je, [Am]blijf bij me, [F]hou van me, [G]ik word stapel[C]gek
[Am] [Am]  
 
 E -----------------|-----------------|-----------------|-----------------------|
 B -----------------|-----------------|-----------------|-----------------------|
 G -----------------|-----------------|-----------------|-----------------------| (Strofe)
 D -----------------|-----------------|-----------------|-----------------------|
 A -----------------|-----------------|-----------------|-----------------------|
 E -5-5-0-0-3-3-5-5-|-5-5-0-0-3-3-5-5-|-5-5-0-0-3-3-5-5-|-5-5-8-8-7-7-5-5-------|

Alles wat ze zegt klikt vals en koud
Zelf als ze zegt dat ze van hem van houd
ze weet dat ze liegt toch zegt ze het opnieuw en opnieuw
en opnieuw en opnieuw en opnieuw en opnieuw en opnieuw en opnieuw
[F]Wie kan het wat schelen, [G]zo zijn er zovelen
[C]Ik wil je, [Am]blijf bij me, [F]hou van me, [G]ga nooit meer [C]weg.
[C]Ik wil je, [Am]blijf bij me, [F]hou van me, [G]ik word stapel[C]gek
[C]Ik wil je, [Am]blijf bij me, [F]hou van me, [F5]zegt ze opnieuw [G5]en opnieuw elke nacht
[Am] [Am]  
 
 E -----------|-----------|-----------|--------------------------------|
 B -----------|-----------|-----------|--------------------------------|
 G -------9-9-|-------9-9-|-------9-9-|--------------------------------| X2
 D -7-7-7-----|-7-7-7-----|-7-7-7-----|-7-7-7-10-9---------------------|
 A -----------|-----------|-----------|--------------------------------|
 E -----------|-----------|-----------|--------------------------------|

[C]Ik wil je, [Am]blijf bij me, [F]hou van me, [G]ga nooit meer [C]weg.
[C]Ik wil je, [Am]blijf bij me, [F]hou van me, [G]ik word stapel[C]gek
[C]Ik wil je, [Am]blijf bij me, [F]hou van me, [G]ga nooit meer [C]weg.
[C]Ik wil je, [Am]blijf bij me, [F]hou van me, [G]ik word stapel[C]gek
Ik wil je, blijf bij me, hou van me, ga nooit meer weg.
Ik wil je, blijf bij me, hou van me, ik word stapelgek
[C]Ik wil je, [Am]blijf bij me, [F]hou van me, [G]ga nooit meer [C]weg.
[C]Ik wil je, [Am]blijf bij me, [F]hou van me, [G]ik word stapel[C]gek
[C]Ik wil je, [Am]blijf bij me, [F]hou van me, [G]ga nooit meer [C]weg.
[C]Ik wil je, [Am]blijf bij me, [F]hou van me, [G]ik word stapel[C]gek
[C]Ik wil je, [Am]blijf bij me, [F]hou van me, [G]ga nooit meer [C]weg.
[C]Ik wil je, [Am]blijf bij me, [F]hou van me, [G]ik word stapel[C]gek
[C]Ik wil je, [C]blijf bij me, [C]hou van me[C]

Important: The song above is NOT stored on the Chordie server. The original song is hosted at www.azchords.com. Chordie works as a search engine and provides on-the-fly formatting. Chordie does not index songs against artists'/composers' will. To remove this song please click here.

Text color:
Chord color:
Chord grids: 
Font size:    
Page size: 

Am C F F5 G G5
Rate #1 of 1 versions

Jango Player

Login - add to songbook

SHARE PAGE  



You need to log in to post comments