Guitar Tabs, Chords and Lyrics
Update 25:10. 13:00. Site is back up running again. Songbooks are recovered. Woring on getting search back up..


All I Want Is You  Delirious?

Intro/Verse
palm mute
 
 --9-9-9-9-9-9-9-9--7-7-7-7-7-7-7-7--5-5-5-5-5-5-5-5--7-7-7-7-7-7-7-7----------
 --7-7-7-7-7-7-7-7--5-5-5-5-5-5-5-5--3-3-3-3-3-3-3-3--5-5-5-5-5-5-5-5----------

Did I tell you........
Pre Chorus ( Well maybe ill just....)
[G] [D] [C]  
Chorus:
[G] [Em] [C] [G] [Em] [C]  
Verse: ( Well Ive been thinking about..)
[G] [C2] [G] [Em] [C]  
Chorus:
[G] [Em] [C]  
Verse 3(?):
 
 ------0----0-----------0----0-----------0----0-----------0----0---------------
 ----0----0---0-------0----0---0-------0----0---0-------0----0---0-------------
 --7----------------5----------------3----------------5------------------------

Chorus
Bridge:
[C] [G/B] [D] [C] [G/B] [D] [C] [G/B] [D] [C]  
Solo:
 
 --7v--------9v--------9/7--7-------------------------------------5------------
 -------------------------------10----9----9--10--9--7----7/5--5---------------
 --5/4--7---------------------5--5--5----4--5--7----5/7/9----------------------
 ----------5-5-5----5/7----7---------------------------------------------------
 --------------------------------------------------------------7v--------------
 --9----7----10----9----------------------9----7----10----9--------------------
 -----------------------10----10h12p10-----------------------------------------

Chords:
[G] [C] [D] [Em] [G/B]  
 
 --3----3----2----3----3-----------
 --3----3----3----3----3-----------
 --0----0----2----0----0-----------
 --0----2----0----2----0-----------
 --2----3---------2----2-----------
 --3--------------0----------------

Play In Christ

Important: The song above is NOT stored on the Chordie server. The original song is hosted at www.azchords.com. Chordie works as a search engine and provides on-the-fly formatting. Chordie does not index songs against artists'/composers' will. To remove this song please click here.

Text color:
Chord color:
Chord grids: 
Font size:    
Page size: 

C C2 D Em G G/B
Rate #1 of 1 versions

Login - add to songbook

SHARE PAGE  




You need to log in to post comments