Guitar Tabs, Chords and Lyrics
Major upgrade!! After one year development the new version of Chordie is now online! Please give feedback.


Awaken the Dawn  Delirious?

Intro: F Bb/F C# C (x2)
Lead guitar
 
 e---------------------------------
 B---10\---------8---6------6------
 G--------5---7-------------------- (x2)
 D---------------------------------
 A---------------------------------
 E---------------------------------

[F] [Bb/F] [C#] [C]  
Bagpipes
 
 e---17----------15---13-----13----
 B-------13--15-------------------- (x2)
 G---------------------------------
 D---------------------------------
 A---------------------------------
 E---------------------------------

[F] [Bb/F] [C#] [C]  
Verse 1: (bass only)
[F] [Bb/F]  
[F] [Eb] [C]  
[F] [Bb/F]  
[F] [Eb] [C]  
Chorus:
[F] [Bb/F] [G] [Bb] [C]  
[F] [Bb/F] [G] [C]  
Verse 2:
[F] [Bb/F] [F] [Eb] [C]  
[F] [Bb/F] [F] [Eb] [C]  
Chorus x2
End with:
G C Bb (into bridge)
Bridge:
 
 e--------------------------------------------
 B---5-----6--------------------6p5---5-------
 G------------7p5----7/9--7h9-------7-----5---
 D--------------------------------------7-----
 A--------------------------------------------
 E--------------------------------------------

[Bb] [Bb]  
 
 e----------------------------------------------
 B-----6----------------------6--6p5------------
 G---5---5----5--5----------7--------7p5---h5---
 D------------------------0--------------7------
 A----------------------------------------------
 E----------------------------------------------

[F/A] [Dm]  
Play the above parts two times
Chorus
Intro
Chords:
Electric- if you are playing a distorted then just play power chords
E A D G B e
[F] [1] [3] [3] [2] [1] [1]  
[Bb/F] [1] [1] [3] [3] [1] [1]  
[Bb] [-] [1] [3] [3] [1] [1]  
[C#] [-] [4] [6] [6] [6] [4]  
[C]Eb [-]- [3]6 [5]8 [5]8 [6]6 [3]6
[G]F [3]- [5]0 [5]3 [3]2 [3]1 [3]1
Dm - - 0 2 3 1
Play In Christ

Important: The song above is NOT stored on the Chordie server. The original song is hosted at www.azchords.com. Chordie works as a search engine and provides on-the-fly formatting. Chordie does not index songs against artists'/composers' will. To remove this song please click here.

Text color:
Chord color:
Chord grids: 
Font size:    
Page size: 

Bb Bb/F C C# Dm Eb F G
Rate #1 of 7 versions

Login - add to songbook

SHARE PAGE  



You need to log in to post comments