Guitar Tabs, Chords and Lyrics
Major upgrade!! After one year development the new version of Chordie is now online! Please give feedback.


Bliss  Delirious?

c1999 Curious? Music
This tab is for standard tuning with no capo, but it's easier if
you put a capo on 2nd fret, just so you can pick the low E string
without having to go back and forth up and down the guitar.
(Therefore anything on 2nd fret equals an open string)
Intro: (x4) | (x8)
 
 e----------12--------|---------x-x-x-9--------------------------
 B-------------12-----|---------x-x-x-12b14r12--9b10r9-----------
 G--------------------|------------------------------------------
 D--------------------|------------------------------------------
 A--------------------|------------------------------------------
 E---2--2-------------|---2--2-----------------------------------

Verse: (bass only)
[F#m]I feel lonely when it's [A]you I miss
[D]I feel crazy when I [G]dream like this
[F#m]I traveled all this way for j[A]ust one kiss
[D]Is it bliss, is it bliss, yes it [G]is
Guitar riff on G (then single-strums
the chords for the rest of the verse)
 
 e---------------------------
 B---------------------------
 G---------2-----------------
 D-------4-------------------
 A-----5---------------------
 E---3-----------------------

[F#m]Rock and roll is[A] everything
[D]Everything to a [G]lonely man
And [F#m]never will I [E]bow to [A]you
Chorus:
 
 e---------------------------------------------------------------
 B---------------------------------------------------------------
 G---------11-11--------9-9---------7-7---------4-4--------------
 D---------------------------------------------------------------
 A---------9--9---------7-7---------5-5---------2-2--------------
 E---2--2---------2--2--------2--2--------2--2-------------------

I- I- I'm not backing down
Verse 2:
[F#m]Take me [A]to the place where [D]eagles [G]fly
Where my [F#m]love for [A]you I never [D]can de[G]ny
[F#m]If I'm right then [A]you are wrong
[D]If I'm wrong than I [G]really lived
[F#m]And if I die with [A]no reward
NC
Then I know I had peace cause I carried the sword
(chorus)
Bridge: (organ only)
[A]It's the simple [B]things that satisfy
[A]Keep my feet on the groun[B]d and my head in the sky
[A/C#]I love you [E]more than I can say
[F#m]And I won't change my [A]mind on the choices I made
Then:
 
 e------------------------
 B------------------------
 G---------9-9------------ (x4)
 D------------------------
 A---------7-7------------
 E---2--2-----------------

(chorus)

Important: The song above is NOT stored on the Chordie server. The original song is hosted at www.azchords.com. Chordie works as a search engine and provides on-the-fly formatting. Chordie does not index songs against artists'/composers' will. To remove this song please click here.

Text color:
Chord color:
Chord grids: 
Font size:    
Page size: 

A A/C# B D E F#m G
Rate #1 of 2 versions

Jango Player

Login - add to songbook

SHARE PAGE  



You need to log in to post comments