Guitar Tabs, Chords and Lyrics
Update 25:10. 13:00. Site is back up running again. Songbooks are recovered. Woring on getting search back up..


Winter of Souls  Demons & Wizards

As recorded by Demons & Wizards
(From the 1999 Album DEMONS & WIZARDS)
Words and Music by Jon Schaffer/Hansi Kürsch
Gtr I (Eb Ab Db Gb Bb Eb) - 'Rhythm Guitar'
Gtr II (Eb Ab Db Gb Bb Eb) - 'Lead Guitar'
Gtr III (Eb Ab Db Gb Bb Eb) - 'Harmony Guitar'
Gtr IV (Eb Ab Db Gb Bb Eb) - 'Acoustic Guitar'
Gtr V (Eb Ab Db Gb Bb Eb) - 'Acoustic Guitar'
Intro
Q=145
[D5/A] [F5/C]  
[4/4] Gtr II
~~~ ~~~
E E E E E Q. +W E E E E E Q. +W
 
 |----------------|------------|----------------|--------|
 |----------------|------------|----------------|--------|
 |----------------|------------|----------------|--------|
 |---7-8---7-8----|-(8)--------|---7-8---7-8----|-(8)----|
 |-5-----5--------|------------|-5-----5--------|--------|
 |----------------|------------|----------------|--------|

|
| Gtr I
| W +W W +W
 
 |----------------|------------|----------------|--------|
 |----------------|------------|----------------|--------|
 |----------------|------------|----------------|--------|
 |----------------|------------|----------------|--------|
 |-5--------------|-(5)--------|-8--------------|-(8)----|
 |-5--------------|-(5)--------|-8--------------|-(8)----|

[C5/G] ~~~~ [G5/D] [F5/C] ~~~~
E E E E E Q. +W E E E E E Q. +W
 
 |------------------|-------------|-------------------|---------|
 |------------------|-------------|-------------------|---------|
 |------------------|-------------|-------------------|---------|
 |---9-10---9-10----|-(10)--------|----9-10---9-10----|-(10)----|
 |-7------7---------|-------------|--7------7---------|---------|
 |------------------|-------------|-------------------|---------|

|
| W +W W W
 
 |------------------|-------------|-------------------|---------|
 |------------------|-------------|-------------------|---------|
 |------------------|-------------|-------------------|---------|
 |------------------|-------------|-------------------|---------|
 |-3----------------|--(3)--------|-10----------------|---8-----|
 |-3----------------|--(3)--------|-10----------------|---8-----|

[D5/A]Gtr III[F5/C]
~~~ ~~~
E E E E E Q. +W E E E E E Q. +W
 
 |------------------|------------|------------------|--------|
 |------------------|------------|------------------|--------|
 |------7------7----|-(7)--------|------7------7----|-(7)----|
 |---10-----10------|------------|---10-----10------|--------|
 |-8------8---------|------------|-8------8---------|--------|
 |------------------|------------|------------------|--------|

|
| Gtr II
| ~~~ ~~~
| E E E E E Q. +W E E E E E Q. +W
 
 |------------------|------------|------------------|--------|
 |------------------|------------|------------------|--------|
 |------------------|------------|------------------|--------|
 |----7-8----7-8----|-(8)--------|----7-8----7-8----|-(8)----|
 |-5------5---------|------------|-5------5---------|--------|
 |------------------|------------|------------------|--------|

|
| Gtr I
| W +W W +W
 
 |------------------|------------|------------------|--------|
 |------------------|------------|------------------|--------|
 |------------------|------------|------------------|--------|
 |------------------|------------|------------------|--------|
 |-5----------------|-(5)--------|-8----------------|-(8)----|
 |-5----------------|-(5)--------|-8----------------|-(8)----|

[C5/G] ~~~~ [G5/D] [F5/C] ~~~~
E E E E E Q. +W E E E E E Q. W
 
 |----------------------|-------------|----------------------|---------||
 |----------------------|-------------|----------------------|---------||
 |--------9--------9----|--(9)--------|--------9--------9----|--10-----||
 |----12-------12-------|-------------|----12-------12-------|---------||
 |-10-------10----------|-------------|-10-------10----------|---------||
 |----------------------|-------------|----------------------|---------||

|
| ~~~~ ~~~~
| E E E E E Q. +W E E E E E Q. +W
 
 |----------------------|-------------|----------------------|---------||
 |----------------------|-------------|----------------------|---------||
 |----------------------|-------------|----------------------|---------||
 |-----9-10-----9-10----|-(10)--------|-----9-10-----9-10----|-(10)----||
 |--7--------7----------|-------------|--7--------7----------|---------||
 |----------------------|-------------|----------------------|---------||

|
| W +W W W
 
 |----------------------|-------------|----------------------|---------||
 |----------------------|-------------|----------------------|---------||
 |----------------------|-------------|----------------------|---------||
 |----------------------|-------------|----------------------|---------||
 |--3-------------------|--(3)--------|-10-------------------|---8-----||
 |--3-------------------|--(3)--------|-10-------------------|---8-----||

Verse
N.C.
Gtr II
~~
H Q E S S Q E E +E E Q
 
 |-------------------------|---------------------------|
 |-------------------------|---------------------------|
 |-------------------------|-14-------12-(12)-----10---|
 |-------------------12-12-|---------------------------|
 |-------------------------|---------------------------|
 |-------------------------|---------------------------|

|
| Gtr I
 
 | PM---------------------------------------------------

| E S S E E E S S E E E S S E E E S S E E
 
 |-------------------------|---------------------------|
 |-------------------------|---------------------------|
 |-------------------------|---------------------------|
 |---7-7-8-7---7-7-8--7----|----7-7-8--7------7-7--8---|
 |-5---------5-------------|--5------------5---------5-|
 |-------------------------|---------------------------|

~~
H Q E S S Q E E +E E Q
 
 |---------------------------|------------------------------|
 |---------------------------|------------------------------|
 |---------------------------|-16--------14-(14)-----12-----|
 |---------------------14-14-|------------------------------|
 |---------------------------|------------------------------|
 |---------------------------|------------------------------|

|
 
 |------------------------------------------------------|

| E S S E E E S S E E E S S E E E S S E E
 
 |---------------------------|------------------------------|
 |---------------------------|------------------------------|
 |---------------------------|------------------------------|
 |---9-9-10-9---9-9-10--9----|----9-9-10--9------9-9-10-----|
 |-7----------7--------------|--7-------------7---------7---|
 |---------------------------|------------------------------|

Gtr III
~~
H Q E S S Q E E +E E Q
 
 |-------------------------|---------------------------|
 |-------------------------|-13-------11-(11)-----10---|
 |-------------------10-10-|---------------------------|
 |-------------------------|---------------------------|
 |-------------------------|---------------------------|
 |-------------------------|---------------------------|

|
| Gtr II
| ~~
| H Q E S S Q E E +E E Q
 
 |-------------------------|---------------------------|
 |-------------------------|---------------------------|
 |-------------------------|-14-------12-(12)-----10---|
 |-------------------12-12-|---------------------------|
 |-------------------------|---------------------------|
 |-------------------------|---------------------------|

|
| Gtr I
 
 | PM---------------------------------------------------

| E S S E E E S S E E E S S E E E S S E E
 
 |-------------------------|---------------------------|
 |-------------------------|---------------------------|
 |-------------------------|---------------------------|
 |---7-7-8-7---7-7-8--7----|----7-7-8--7------7-7--8---|
 |-5---------5-------------|--5------------5---------5-|
 |-------------------------|---------------------------|

~~
H Q E S S Q E E +E E Q
 
 |---------------------------|------------------------------||
 |---------------------------|-15--------13-(13)-----12-----||
 |---------------------12-12-|------------------------------||
 |---------------------------|------------------------------||
 |---------------------------|------------------------------||
 |---------------------------|------------------------------||

|
| ~~
| H Q E S S Q E E +E E Q
 
 |---------------------------|------------------------------||
 |---------------------------|------------------------------||
 |---------------------------|-16--------14-(14)-----12-----||
 |---------------------14-14-|------------------------------||
 |---------------------------|------------------------------||
 |---------------------------|------------------------------||

|
 
 |------------------------------------------------------|

| E S S E E E S S E E E S S E E E S S E E
 
 |---------------------------|------------------------------||
 |---------------------------|------------------------------||
 |---------------------------|------------------------------||
 |---9-9-10-9---9-9-10--9----|----9-9-10--9------9-9-10-----||
 |-7----------7--------------|--7-------------7---------7---||
 |---------------------------|------------------------------||

Verse
$
[D5] ~~
W E E E E +E Q E
 
 |-----------|--------------------------|
 |-10--------|-10--12-13-12-(12)-10--10-|
 |-----------|--------------------------|
 |-----------|--------------------------|
 |-----------|--------------------------|
 |-----------|--------------------------|

|
| ~~
| W E E E E +E Q E
 
 |-----------|--------------------------|
 |-----------|--------------------------|
 |-10--------|-10--12-14-12-(12)-10--10-|
 |-----------|--------------------------|
 |-----------|--------------------------|
 |-----------|--------------------------|

|
| W +W
 
 |-----------|--------------------------|
 |-----------|--------------------------|
 |-----------|--------------------------|
 |--7--------|-(7)----------------------|
 |--5--------|-(5)----------------------|
 |-----------|--------------------------|

[E5/B] ~~
W E E E E +E Q S S
 
 |-----------|-----------------------------|
 |-12--------|-12--13-15-13-(13)-12--12h13-|
 |-----------|-----------------------------|
 |-----------|-----------------------------|
 |-----------|-----------------------------|
 |-----------|-----------------------------|

|
| ~~
| W E E E E +E Q S S
 
 |-----------|-----------------------------|
 |-----------|-----------------------------|
 |-12--------|-12--14-16-14-(14)-12--12h14-|
 |-----------|-----------------------------|
 |-----------|-----------------------------|
 |-----------|-----------------------------|

|
| W +W
 
 |-----------|-----------------------------|
 |-----------|-----------------------------|
 |-----------|-----------------------------|
 |--9--------|-(9)-------------------------|
 |--7--------|-(7)-------------------------|
 |--7--------|-(7)-------------------------|

[D5] ~~ [E5/B] ~~
 
 |--3---| |--3--|

W E E E E +E Q E W Q Q Q Q Q Q
 
 |-----------|--------------------------|-----------|-----------------------|
 |-10--------|-10--12-13-12-(12)-10--10-|-12--------|-/15--13-12-13-12-10---|
 |-----------|--------------------------|-----------|-----------------------|
 |-----------|--------------------------|-----------|-----------------------|
 |-----------|--------------------------|-----------|-----------------------|
 |-----------|--------------------------|-----------|-----------------------|

|
| ~~ ~~
 
 | |--3---| |--3--|

| W E E E E +E Q E W Q Q Q Q Q Q
 
 |-----------|--------------------------|-----------|-----------------------|
 |-----------|--------------------------|-----------|-----------------------|
 |-10--------|-10--12-14-12-(12)-10--10-|-12--------|-/14--12-11-12-11--9---|
 |-----------|--------------------------|-----------|-----------------------|
 |-----------|--------------------------|-----------|-----------------------|
 |-----------|--------------------------|-----------|-----------------------|

|
| W +W W +W
 
 |-----------|--------------------------|-----------|-----------------------|
 |-----------|--------------------------|-----------|-----------------------|
 |-----------|--------------------------|-----------|-----------------------|
 |--7--------|-(7)----------------------|--9--------|--(9)------------------|
 |--5--------|-(5)----------------------|--7--------|--(7)------------------|
 |-----------|--------------------------|--7--------|--(7)------------------|

Verse
Q=135
To Coda
E5 N.C.(E)
Gtr II
~~~~~~~~~~~~~~~
W +W W
 
 |----------|------------||----------------------------------|
 |----------|------------||o---------------------------------|
 |-9--------|-(9)--------||----------------------------------|
 |----------|------------||----------------------------------|
 |----------|------------||o---------------------------------|
 |----------|------------||----------------------------------|

|
| Gtr I
 
 | PM-------------------------------

| W +W S S S S S S S S S S S S S S S S
 
 |----------|------------||----------------------------------|
 |----------|------------||o---------------------------------|
 |----------|------------||----------------------------------|
 |-9--------|-(9)--------||----------------------------------|
 |-7--------|-(7)--------||o-7-7-7-7-7-7-7-7-7-7-7-7-7-7-7-7-|
 |----------|------------||----------------------------------|

W
 
 |------------------------------------|
 |------------------------------------|
 |------------------------------------|
 |------------------------------------|
 |------------------------------------|
 |------------------------------------|

|
 
 |-------------------------------|

| S S S S S S S S S S S S S S S S
 
 |------------------------------------|
 |------------------------------------|
 |------------------------------------|
 |------------------------------------|
 |-7-7-7-7-7-7-7-7-7-7-7-7-7-7-7-7----|
 |------------------------------------|

N.C.(D) N.C.(F)
Gtr I
 
 PM--------------------------------------------------------------|

S S S S S S S S S S S S S S S S S S S S S S S S S S S S S S S S 4x
 
 |---------------------------------|----------------------------------||
 |---------------------------------|---------------------------------o||
 |---------------------------------|----------------------------------||
 |---------------------------------|----------------------------------||
 |-5-5-5-5-5-5-5-5-5-5-5-5-5-5-5-5-|-8-8-8-8-8-8-8-8-8-8-8-8-8-8-8-8-o||
 |---------------------------------|----------------------------------||

[Em]Gtr II
 
 PM-----------------------------------------------------------------

S S S S S S S S S S S S S S S S S S S S S S S S S S S S S S S S
 
 ||----------------------------------|---------------------------------|
 ||o---------------------------------|---------------------------------|
 ||----------------------------------|---------------------------------|
 ||--5-5-5-5-5-5-5-5-5-5-5-5-5-5-5-5-|-5-5-5-5-5-5-5-5-5-5-5-5-5-5-5-5-|
 ||o---------------------------------|---------------------------------|
 ||----------------------------------|---------------------------------|

|
| Gtr I
 
 | PM-----------------------------------------------------------------

| S S S S S S S S S S S S S S S S S S S S S S S S S S S S S S S S
 
 ||----------------------------------|---------------------------------|
 ||o---------------------------------|---------------------------------|
 ||----------------------------------|---------------------------------|
 ||----------------------------------|---------------------------------|
 ||o-7-7-7-7-7-7-7-7-7-7-7-7-7-7-7-7-|-7-7-7-7-7-7-7-7-7-7-7-7-7-7-7-7-|
 ||----------------------------------|---------------------------------|

[D] [F]  
 
 -----------------------------------------------------------------|

S S S S S S S S S S S S S S S S S S S S S S S S S S S S S S S S
 
 |---------------------------------|-------------------------------------||
 |---------------------------------|------------------------------------o||
 |---------------------------------|-------------------------------------||
 |-4-4-4-4-4-4-4-4-4-4-4-4-4-4-4-4-|-7-7-7-7-7-7-7-7-7-7-7-7-7-7-7-7-----||
 |---------------------------------|------------------------------------o||
 |---------------------------------|-------------------------------------||

|
 
 |-----------------------------------------------------------------|

| S S S S S S S S S S S S S S S S S S S S S S S S S S S S S S S S
 
 |---------------------------------|-------------------------------------||
 |---------------------------------|------------------------------------o||
 |---------------------------------|-------------------------------------||
 |---------------------------------|-------------------------------------||
 |-5-5-5-5-5-5-5-5-5-5-5-5-5-5-5-5-|-8-8-8-8-8-8-8-8-8-8-8-8-8-8-8-8----o||
 |---------------------------------|-------------------------------------||

Chorus
[E5D5/AE5]Gtr I[E5D5/AG5/D] [F#5/C#] [E5D5E5] [C5/G]
PM PM| PM PM| PM
E E E E +Q E E E E E E +E Q. E E Q +Q E E +W 3x
 
 ||-------------------|---------------------|-----------------|---------||
 ||o------------------|---------------------|-----------------|--------o||
 ||-------------------|---------------------|-----------------|---------||
 ||--9-7---2-(2)------|-9-7---12-(12)-11----|-----2--(2)----5-|-(5)-----||
 ||o-7-5---2-(2)------|-7-5---10-(10)--9----|-7-5-2--(2)----3-|-(3)----o||
 ||--7-5-0-0-(0)--0-0-|-7-5-0-10-(10)--9----|-7-5-0--(0)--0-3-|-(3)-----||

[E5D5/AE5] [E5D5/AG5/D] [F#5/C#] [E5D5E5] [C5/G] 
PM PM| PM PM| PM[6/4]
E E E E +Q E E E E E E +E Q. E E Q +Q E E +W.
 
 |------------------|---------------------|-----------------|--------||
 |------------------|---------------------|-----------------|--------||
 |------------------|---------------------|-----------------|--------||
 |-9-7---2-(2)------|-9-7---12-(12)-11----|-----2--(2)----5-|-(5)----||
 |-7-5---2-(2)------|-7-5---10-(10)--9----|-7-5-2--(2)----3-|-(3)----||
 |-7-5-0-0-(0)--0-0-|-7-5-0-10-(10)--9----|-7-5-0--(0)--0-3-|-(3)----||

Verse
Q=145
N.C.
[4/4] Gtr III
~~~~~
H Q E S S Q E E +E E Q
 
 |-------------------------|-----------------------------|
 |-------------------------|-13--------11-(11)------10---|
 |-------------------10-10-|--------10---------10--------|
 |-------------------------|-----------------------------|
 |-------------------------|-----------------------------|
 |-------------------------|-----------------------------|

|
| Gtr II
| ~~~~~
| H Q E S S Q E E +E E Q
 
 |-------------------------|-----------------------------|
 |-------------------------|-----------------------------|
 |-------------------------|-14--------12-(12)------10---|
 |-------------------12-12-|--------12---------12--------|
 |-------------------------|-----------------------------|
 |-------------------------|-----------------------------|

|
| Gtr I
 
 | PM-----------------------------------------------------

| E S S E E E S S E E E S S E E E S S E E
 
 |-------------------------|-----------------------------|
 |-------------------------|-----------------------------|
 |-------------------------|-----------------------------|
 |---7-7-8-7---7-7-8--7----|----7-7--8--7-------7-7--8---|
 |-5---------5-------------|--5-------------5----------5-|
 |-------------------------|-----------------------------|

~~~~~~~~~~~~~~~~~~~~~~~ ~~
H. +E S S Q E E +E E Q
 
 |-----------------------------|-----------------------------|
 |-8-----------------(8)-------|-15--------13-(13)------12---|
 |-----------------------12-12-|--------12---------12--------|
 |-----------------------------|-----------------------------|
 |-----------------------------|-----------------------------|
 |-----------------------------|-----------------------------|

|
|~~~~~~~~~~~~~~~~~~~~~~~ ~~
| H. +E S S Q E E +E E Q
 
 |-----------------------------|-----------------------------|
 |-----------------------------|-----------------------------|
 |-9-----------------(9)-------|-16--------14-(14)------12---|
 |-----------------------14-14-|--------14---------14--------|
 |-----------------------------|-----------------------------|
 |-----------------------------|-----------------------------|

|
 
 |---------------------------------------------------------|

| E S S E E E S S E E E S S E E E S S E E
 
 |-----------------------------|-----------------------------|
 |-----------------------------|-----------------------------|
 |-----------------------------|-----------------------------|
 |----9-9-10-9---9-9-10---9----|----9-9-10--9-------9-9-10---|
 |-7-----------7---------------|--7-------------7----------7-|
 |-----------------------------|-----------------------------|

Gtr III
~~~~~~~~~~~~~~~~~~~~~~ ~~~~~
H. +E S S Q E E +E E Q
 
 |------------------------------|-----------------------------|
 |-10----------------(10)-------|-13--------11-(11)------10---|
 |------------------------10-10-|--------10---------10--------|
 |------------------------------|-----------------------------|
 |------------------------------|-----------------------------|
 |------------------------------|-----------------------------|

|
| Gtr II
| ~~~ ~~~~~
| H. +E S S Q E E +E E Q
 
 |------------------------------|-----------------------------|
 |------------------------------|-----------------------------|
 |-10----------------(10)-------|-14--------12-(12)------10---|
 |------------------------12-12-|--------12---------12--------|
 |------------------------------|-----------------------------|
 |------------------------------|-----------------------------|

|
| Gtr I
 
 | PM---------------------------------------------------------

| E S S E E E S S E E E S S E E E S S E E
 
 |------------------------------|-----------------------------|
 |------------------------------|-----------------------------|
 |------------------------------|-----------------------------|
 |-----7-7-8-7---7-7---8---7----|----7-7--8--7-------7-7--8---|
 |--5----------5----------------|--5-------------5----------5-|
 |------------------------------|-----------------------------|

D.S. al Coda
~~~~~~~~~~~~~~~~~~~~~~~ ~~
H. +E S S Q E E +E E Q
 
 |-----------------------------|-------------------------------||
 |-8-----------------(8)-------|-15--------13-(13)------12-----||
 |-----------------------12-12-|--------12---------12----------||
 |-----------------------------|-------------------------------||
 |-----------------------------|-------------------------------||
 |-----------------------------|-------------------------------||

|
|~~~~~~~~~~~~~~~~~~~~~~~ ~~
| H. +E S S Q E E +E E Q
 
 |-----------------------------|-------------------------------||
 |-----------------------------|-------------------------------||
 |-9-----------------(9)-------|-16--------14-(14)------12-----||
 |-----------------------14-14-|--------14---------14----------||
 |-----------------------------|-------------------------------||
 |-----------------------------|-------------------------------||

|
 
 |---------------------------------------------------------|

| E S S E E E S S E E E S S E E E S S E E
 
 |-----------------------------|-------------------------------||
 |-----------------------------|-------------------------------||
 |-----------------------------|-------------------------------||
 |----9-9-10-9---9-9-10---9----|----9-9-10--9-------9-9-10-----||
 |-7-----------7---------------|--7-------------7----------7---||
 |-----------------------------|-------------------------------||

Verse
Q=135
&
[Em]Gtr II
 
 PM-----------------------------------------------------------------

S S S S S S S S S S S S S S S S S S S S S S S S S S S S S S S S
 
 ||----------------------------------|---------------------------------|
 ||o---------------------------------|---------------------------------|
 ||----------------------------------|---------------------------------|
 ||--5-5-5-5-5-5-5-5-5-5-5-5-5-5-5-5-|-5-5-5-5-5-5-5-5-5-5-5-5-5-5-5-5-|
 ||o---------------------------------|---------------------------------|
 ||----------------------------------|---------------------------------|

|
| Gtr I
 
 | PM-----------------------------------------------------------------

| S S S S S S S S S S S S S S S S S S S S S S S S S S S S S S S S
 
 ||----------------------------------|---------------------------------|
 ||o---------------------------------|---------------------------------|
 ||----------------------------------|---------------------------------|
 ||----------------------------------|---------------------------------|
 ||o-7-7-7-7-7-7-7-7-7-7-7-7-7-7-7-7-|-7-7-7-7-7-7-7-7-7-7-7-7-7-7-7-7-|
 ||----------------------------------|---------------------------------|

[D] [F]  
 
 -----------------------------------------------------------------|

S S S S S S S S S S S S S S S S S S S S S S S S S S S S S S S S 4x
 
 |---------------------------------|-------------------------------------||
 |---------------------------------|------------------------------------o||
 |---------------------------------|-------------------------------------||
 |-4-4-4-4-4-4-4-4-4-4-4-4-4-4-4-4-|-7-7-7-7-7-7-7-7-7-7-7-7-7-7-7-7-----||
 |---------------------------------|------------------------------------o||
 |---------------------------------|-------------------------------------||

|
 
 |-----------------------------------------------------------------|

| S S S S S S S S S S S S S S S S S S S S S S S S S S S S S S S S 4x
 
 |---------------------------------|-------------------------------------||
 |---------------------------------|------------------------------------o||
 |---------------------------------|-------------------------------------||
 |---------------------------------|-------------------------------------||
 |-5-5-5-5-5-5-5-5-5-5-5-5-5-5-5-5-|-8-8-8-8-8-8-8-8-8-8-8-8-8-8-8-8----o||
 |---------------------------------|-------------------------------------||

Chorus
[E5D5/AE5]Gtr I[E5D5/AG5/D] [F#5/C#] [E5D5E5] [C5/G]
PM PM| PM PM| PM
E E E E +Q E E E E E E +E Q. E E Q +Q E E +W 3x
 
 ||-------------------|---------------------|-----------------|---------||
 ||o------------------|---------------------|-----------------|--------o||
 ||-------------------|---------------------|-----------------|---------||
 ||--9-7---2-(2)------|-9-7---12-(12)-11----|-----2--(2)----5-|-(5)-----||
 ||o-7-5---2-(2)------|-7-5---10-(10)--9----|-7-5-2--(2)----3-|-(3)----o||
 ||--7-5-0-0-(0)--0-0-|-7-5-0-10-(10)--9----|-7-5-0--(0)--0-3-|-(3)-----||

[E5D5/AE5] PM PM| [E5D5/AG5/D] PM[F#5/C#]
E E E E +Q E E E E E E +E Q.
 
 |------------------|---------------------|
 |------------------|---------------------|
 |------------------|---------------------|
 |-9-7---2-(2)------|-9-7---12-(12)-11----|
 |-7-5---2-(2)------|-7-5---10-(10)--9----|
 |-7-5-0-0-(0)--0-0-|-7-5-0-10-(10)--9----|

Q=125
[E5D5E5]PM| PM[C5/G] [E5]
E E Q +Q E E +H +Q Q W +W
 
 |-----------------|-----------------|----------|--------||
 |-----------------|-----------------|----------|--------||
 |-----------------|-----------------|----------|--------||
 |-----2--(2)----5-|-(5)----(5)--5/--|-9--------|-(9)----||
 |-7-5-2--(2)----3-|-(3)----(3)--3/--|-7--------|-(7)----||
 |-7-5-0--(0)--0-3-|-(3)----(3)--3/--|----------|--------||

Interlude
[Em]Gtr V
W W W W
 
 ||----------------|-------------------|-^7------------|--------------------|
 ||o---------------|-------------------|-^8------------|--------------------|
 ||--^9------------|-------------------|-^9------------|--------------------|
 ||--^9------------|-------------------|---------------|--------------------|
 ||o-^7------------|-------------------|---------------|--------------------|
 ||--^0------------|-------------------|---------------|--------------------|

|
| Gtr IV
| Q Q E Q E Q E E +E E E E Q Q E Q E Q E E +E E E E
 
 ||----------------|-------------------|---------------|--------------------|
 ||o---------------|-------------------|---------------|--------------------|
 ||----------------|-------------------|---------------|--------------------|
 ||------9----9----|-10----7-(7)---7-9-|-----9----9----|-10----7-(7)---7-9--|
 ||o---------------|-------------------|---------------|--------------------|
 ||---0-----0----0-|-----0-------0-----|--0-----0----0-|-----0-------0------|

E E E E E Q. W
 
 |-------------------|-------------------|
 |-------------------|-------------------|
 |---------9---9-----|-------------------|
 |-------9-----------|-------------------|
 |----12-------------|-------------------|
 |-10----------------|-------------------|

|
| Q Q E Q E Q E E +E E E E
 
 |-------------------|-------------------|
 |-------------------|-------------------|
 |-------------------|-------------------|
 |-------9-----9-----|-10----7-(7)---7-9-|
 |-------------------|-------------------|
 |--0--------0-----0-|-----0-------0-----|

E E E E E Q. W
 
 |------------------|--------------------||
 |------------------|-------------------o||
 |--------7---7-----|--------------------||
 |------9-----------|--------------------||
 |---10-------------|-------------------o||
 |-8----------------|--------------------||

|
| Q Q E Q E Q E E +E E E E
 
 |------------------|--------------------||
 |------------------|-------------------o||
 |------------------|--------------------||
 |------9-----9-----|-10----7-(7)---7-9--||
 |------------------|-------------------o||
 |-0--------0-----0-|-----0-------0------||

Bridge
Q=128
Gtr [E5]III[C/E] [A5/E] [E5]
W W 4x
 
 ||----------------|--------------------||
 ||o---------------|-------------------o||
 ||----------------|--------------------||
 ||----------------|--------------------||
 ||o---------------|-------------------o||
 ||----------------|--------------------||

|
| Gtr II
| W W 4x
 
 ||----------------|--------------------||
 ||o---------------|-------------------o||
 ||----------------|--------------------||
 ||----------------|--------------------||
 ||o---------------|-------------------o||
 ||----------------|--------------------||

|
| Gtr I
| PM| PM PM PM PM
| E E Q E Q E Q E E +E E E E 4x
 
 ||----------------|--------------------||
 ||o---------------|-------------------o||
 ||----------------|--------------------||
 ||------9----9----|-10----7-(7)---7-9--||
 ||o-----7----7----|--7----7-(7)---7-7-o||
 ||--0-0----0----0-|-----0-------0------||

[D5] [C5] [D5/A] ~~~
W E E E E E Q S S
 
 |----------------------|--------15---15--14---12h14-|
 |----------------------|-/13-13---------------------|
 |----------------------|----------------------------|
 |----------------------|----------------------------|
 |----------------------|----------------------------|
 |----------------------|----------------------------|

|
| ~~~ ~~~
| E E E E E Q. E E E E E Q S S
 
 |----------------------|----------------------------|
 |----------------------|--------15---15--13---12h13-|
 |--------14---14-12----|-/12-12---------------------|
 |-/12-12---------------|----------------------------|
 |----------------------|----------------------------|
 |----------------------|----------------------------|

|
| W H +E Q.
 
 |----------------------|----------------------------|
 |----------------------|----------------------------|
 |----------------------|----------------------------|
 |---7------------------|---5---------(5)--7---------|
 |---5------------------|---3---------(3)--5---------|
 |----------------------|------------------5---------|

[E5] [C/E] >[A5/E] [E5] [C/E] [A5/E] [E5]
~~~~~~~~~~~~~~~~~~~~~
W +W W W 3x
 
 |-12-------------|-(12)----------------||----------------|--------------------||
 |----------------|---------------------||o---------------|-------------------o||
 |----------------|---------------------||----------------|--------------------||
 |----------------|---------------------||----------------|--------------------||
 |----------------|---------------------||o---------------|-------------------o||
 |----------------|---------------------||----------------|--------------------||

|
| >
| ~~~~~~~~~~~~~~~~~~~~~
| W +W W W 3x
 
 |----------------|---------------------||----------------|--------------------||
 |-12-------------|-(12)----------------||o---------------|-------------------o||
 |----------------|---------------------||----------------|--------------------||
 |----------------|---------------------||----------------|--------------------||
 |----------------|---------------------||o---------------|-------------------o||
 |----------------|---------------------||----------------|--------------------||

|
| PM| PM PM PM PM PM| PM PM PM PM
| E E Q E Q E Q E E +E E E E E E Q E Q E Q E E +E E E E 3x
 
 |----------------|---------------------||----------------|--------------------||
 |----------------|---------------------||o---------------|-------------------o||
 |----------------|---------------------||----------------|--------------------||
 |------9----9----|--10-----7-(7)---7-9-||------9----9----|-10----7-(7)---7-9--||
 |------7----7----|---7-----7-(7)---7-7-||o-----7----7----|--7----7-(7)---7-7-o||
 |--0-0----0----0-|-------0-------0-----||--0-0----0----0-|-----0-------0------||

[D5] [C5] [D5/A] ~~~
W E E E E E Q S S
 
 |----------------------|--------15---15--14---12h14-|
 |----------------------|-/13-13---------------------|
 |----------------------|----------------------------|
 |----------------------|----------------------------|
 |----------------------|----------------------------|
 |----------------------|----------------------------|

|
| ~~~ ~~~
| E E E E E Q. E E E E E Q S S
 
 |----------------------|----------------------------|
 |----------------------|--------15---15--13---12h13-|
 |--------14---14-12----|-/12-12---------------------|
 |-/12-12---------------|----------------------------|
 |----------------------|----------------------------|
 |----------------------|----------------------------|

|
| W H +E Q.
 
 |----------------------|----------------------------|
 |----------------------|----------------------------|
 |----------------------|----------------------------|
 |---7------------------|---5---------(5)--7---------|
 |---5------------------|---3---------(3)--5---------|
 |----------------------|------------------5---------|

H=H
[D5] ~~~~~~~~~~~~~~~~~~~[C5]~~~~~~~~~~~~[G5/D]~~~~~
H H H Q Q
 
 |-15-------17-------|-19-------20---22---||
 |-------------------|--------------------||
 |-------------------|--------------------||
 |-------------------|--------------------||
 |-------------------|--------------------||
 |-------------------|--------------------||

|
| ~~~~~~~~~~~~~~~~~~~~~~~~~~~~~~~~~~~~
| H H H Q Q
 
 |-------------------|--------------------||
 |-15-------17-------|-19-------20---22---||
 |-------------------|--------------------||
 |-------------------|--------------------||
 |-------------------|--------------------||
 |-------------------|--------------------||

|
 
 | PM-----------| PM--| PM

| E E E E E E E E E E E E E Q E
 
 |-------------------|--------------------||
 |-------------------|--------------------||
 |-------------------|--------------------||
 |--7-7-7-7--7-7-7-7-|--5-5-5-5--5-5------||
 |--5-5-5-5--5-5-5-5-|--3-3-3-3--3-5------||
 |-------------------|------------------0-||

Out-Chorus
Q=135
[E5/B] [D5/A] ~~~~~~~~[E5]~~~~~~~~~~~~
E. +S +H.
 
 |-22b24====(22)-(22)------------|
 |-------------------------------|
 |-------------------------------|
 |-------------------------------|
 |-------------------------------|
 |-------------------------------|

|
| ~~~~~~~~~~~~~~~~~~~~
| E. +S +H.
 
 |-------------------------------|
 |-22b24====(22)-(22)------------|
 |-------------------------------|
 |-------------------------------|
 |-------------------------------|
 |-------------------------------|

|
| PM PM|
| E E E E +Q E E
 
 |-------------------------------|
 |-------------------------------|
 |-------------------------------|
 |--9-----7-----------2-(2)------|
 |--7-----5-----------2-(2)------|
 |--7-----5--------0--0-(0)--0-0-|

[E5/B] >[D5/AG5/D] [F#5/C#] [E5D5E5] [C5/G]
~~~~~~~
+W W W
 
 |-(22)r-------------------|-----------------|--------|
 |-------------------------|-----------------|--------|
 |-------------------------|-----------------|--------|
 |-------------------------|-----------------|--------|
 |-------------------------|-----------------|--------|
 |-------------------------|-----------------|--------|

|
| >
|~~~~~~~
| +W W W
 
 |-------------------------|-----------------|--------|
 |-(22)r-------------------|-----------------|--------|
 |-------------------------|-----------------|--------|
 |-------------------------|-----------------|--------|
 |-------------------------|-----------------|--------|
 |-------------------------|-----------------|--------|

|
| PM PM| PM
| E E E E +E Q. E E Q +Q E E +W
 
 |-------------------------|-----------------|--------|
 |-------------------------|-----------------|--------|
 |-------------------------|-----------------|--------|
 |---9---7---12-(12)-11----|-----2--(2)----5-|-(5)----|
 |---7---5---10-(10)--9----|-7-5-2--(2)----3-|-(3)----|
 |---7---5-0-10-(10)--9----|-7-5-0--(0)--0-3-|-(3)----|

[E5D5/AE5]Gtr I[E5D5/AG5/D] [F#5/C#] [E5D5E5] [C5/G]
PM PM| PM PM| PM
E E E E +Q E E E E E E +E Q. E E Q +Q E E +W 4x
 
 ||-------------------|---------------------|-----------------|---------||
 ||o------------------|---------------------|-----------------|--------o||
 ||-------------------|---------------------|-----------------|---------||
 ||--9-7---2-(2)------|-9-7---12-(12)-11----|-----2--(2)----5-|-(5)-----||
 ||o-7-5---2-(2)------|-7-5---10-(10)--9----|-7-5-2--(2)----3-|-(3)----o||
 ||--7-5-0-0-(0)--0-0-|-7-5-0-10-(10)--9----|-7-5-0--(0)--0-3-|-(3)-----||

Duration Legend
 
 ---------------
 W - whole; H - half; Q - quarter; E - 8th; S - 16th; T - 32nd; X - 64th; a - acciaccatura

+ - note tied to previous; . - note dotted; .. - note double dotted
Uncapitalized letters represent notes that are staccato (1/2 duration)
Irregular groupings are notated above the duration line
Duration letters will always appear directly above the note/fret number it represents the
duration for. Duration letters with no fret number below them represent rests. Multi-
bar rests are notated in the form Wxn, where n is the number of bars to rest for. Low
melody durations appear below the staff
Tablature Legend
 
 ----------------

h - hammer-on
p - pull-off
b - bend
pb - pre-bend
r - bend release (if no number after the r, then release immediately)
/\ - slide into or out of (from/to "nowhere")
s - legato slide
S - shift slide
<n> - natural harmonic
(n) - artificial harmonic
n(n) - tapped harmonic
~ - vibrato
tr - trill
T - tap
TP - trem. picking
PM - palm muting
\n/ - tremolo bar dip; n = amount to dip
\n - tremolo bar down
n/ - tremolo bar up
/n\ - tremolo bar inverted dip
= - hold bend; also acts as connecting device for hammers/pulls
<> - volume swell (louder/softer)
x - on rhythm slash represents muted slash
o - on rhythm slash represents single note slash
Misc Legend
 
 -----------

| - bar
|| - double bar
||o - repeat start
o|| - repeat end
*| - double bar (ending)
: - bar (freetime)
$ - Segno
& - Coda
Tempo markers - <E/E./Q/Q./H/H.> = BPM(8/16=s8/s16), where s8 = swing 8ths, s16 = swing 16ths

Important: The song above is NOT stored on the Chordie server. The original song is hosted at www.azchords.com. Chordie works as a search engine and provides on-the-fly formatting. Chordie does not index songs against artists'/composers' will. To remove this song please click here.

Text color:
Chord color:
Chord grids: 
Font size:    
Page size: 

A5/E C/E C5 C5/G D D5 D5/A E5 E5/B Em F F5/C G5/D
Rate #2 of 2 versions

Login - add to songbook

SHARE PAGE  



You need to log in to post comments