Guitar Tabs, Chords and Lyrics
Update 25:10. 13:00. Site is back up running again. Songbooks are recovered. Woring on getting search back up..


Everything Sux  Descendents

[Intro] 
[B5/C5]  
 
 e|-|-----------------|-----------------|-----------------|-----------------|
 B|-|-----------------|-----------------|-----------------|-----------------|
 G|-4/5-5-5-5-5-5-5-5-|-5-5-5-5-5-5-5-5-|-5-5-5-5-5-5-5-5-|-5-5-5-5-5-5-5-5-|
 D|-4/5-5-5-5-5-5-5-5-|-5-5-5-5-5-5-5-5-|-5-5-5-5-5-5-5-5-|-5-5-5-5-5-5-5-5-|
 A|-2/3-3-3-3-3-3-3-3-|-3-3-3-3-3-3-3-3-|-3-3-3-3-3-3-3-3-|-3-3-3-3-3-3-3-3-|
 E|-|-----------------|-----------------|-----------------|-----------------|

| d u d u d u d u | d u d u d u d u | d u d u d u d u | d u d u d u d u |
| 1 + 2 + 3 + 4 + | 1 + 2 + 3 + 4 + | 1 + 2 + 3 + 4 + | 1 + 2 + 3 + 4 + |
[Verse 1] 
[A5] [D5] [G5] [A5]  
 
 e|-----------------|-----------------|-----------------|-----------------|
 B|-----------------|-----------------|-----------------|-----------------|
 G|-----------------|-----------------|-7---7-7---------|-----------------|
 D|-7---7-7-7-7-7-7-|-----7-7-7-7-7---|-7---7-7-5-5-5/7-|---7-7-7-7-7-7---|
 A|-7---7-7-7-7-7-7-|-----7-7-7-7-7---|-5---5-5-5-5-5/7-|---7-7-7-7-7-7---|
 E|-5---5-5-5-5-5-5-|-----5-5-5-5-5---|---------3-3-3/5-|---5-5-5-5-5-5---|

| d d u d u d u | d u d u d | d d u d u d u | u d u d u d |
| 1 + 2 + 3 + 4 + | 1 + 2 + 3 + 4 + | 1 + 2 + 3 + 4 + | 1 + 2 + 3 + 4 + |
[A5] [D5] [G5] [A5]  
 
 e|-----------------|-----------------|-----------------|-----------------|
 B|-----------------|-----------------|-----------------|-----------------|
 G|-----------------|-----------------|-7-7-7-----------|-----------------|
 D|-7-7-7-7-7-7-7-7-|-7-7-7-7-7-7-7---|-7-7-7---5-5-5/7-|-7-7-7-7-7-7-7---|
 A|-7-7-7-7-7-7-7-7-|-7-7-7-7-7-7-7---|-5-5-5---5-5-5/7-|-7-7-7-7-7-7-7---|
 E|-5-5-5-5-5-5-5-5-|-5-5-5-5-5-5-5---|---------3-3-3/5-|-5-5-5-5-5-5-5---|

| d u d u d u d u | d u d u d u d | d u d d u d u | d u d u d u d |
| 1 + 2 + 3 + 4 + | 1 + 2 + 3 + 4 + | 1 + 2 + 3 + 4 + | 1 + 2 + 3 + 4 + |
[A5]Got up this morning to make some coffee
[D5]Everything [G5]sucks [A5]today
[A5]Prayed someone hired a hitman to off me
[D5]Everything [G5]sucks [A5]today
[Precborus 1] (Dead notes work well in place of harmonics)
| B (9th fret harmonic) D5 | C#5 B5 A5 | G#5 | E5 B5 |
 
 e|-7----------|-----------------|-----------------|-----------------|
 B|-7----------|-----------------|-----------------|-----------------|
 G|-8----------|-----------------|-----------------|-9---------------|
 D|-9-------12-|---11--9---7-----|-6---6-6-6-6-6---|-9---9---9-9-9-9-|
 A|-9-------12-|---11--9---7-----|-6---6-6-6-6-6---|-7---9---9-9-9-9-|
 E|-7-------10-|---9---7---5-----|-4---4-4-4-4-4---|-----7---7-7-7-7-|

| d d u d u d u | u u u | d d u d u d | d d d u d u |
| 1 + 2 + 3 + 4 + | 1 + 2 + 3 + 4 + | 1 + 2 + 3 + 4 + | 1 + 2 + 3 + 4 + |
| B (9th fret harmonic) D5 | C#5 B5 A5 | G#5 | E5 B5 | |
 
 e|-7----------|-----------------|-----------------|------------------|---------|
 B|-7----------|-----------------|-----------------|------------------|---------|
 G|-8----------|-----------------|-----------------|-9----------------|---------|
 D|-9-------12-|---11--9---7-----|-6---6-6-6-6-6---|-9---9-9-9-9-9-9--|---9-9---|
 A|-9-------12-|---11--9---7-----|-6---6-6-6-6-6---|-7---9-9-9-9-9-9--|---9-9---|
 E|-7-------10-|---9---7---5-----|-4---4-4-4-4-4---|-----7-7-7-7-7-7--|---7-7---|

| d d u d u d u | u u u | d d u d u d | d d u d u d u | u d |
PM . . . . . .
| 1 + 2 + 3 + 4 + | 1 + 2 + 3 + 4 + | 1 + 2 + 3 + 4 + | 1 + 2 + 3 + 4 + | 1 + 2 + |
B5 *9fr harm.* D5 C#5 B5 A5
Got up on the wrong side of life this morning
[G#5]Nothing today is gonna [E5]go my [B5]way
B5 *9fr harm.* D5 C#5 B5 A5
Horoscope told me lies this morning
G#5 E5 B5(PM)
I don't think anything is gonna be okay
[Cborus 1] 
[C#5] [F5] [B5] [C#5] [F5] [B5]  
 
 e|------------------------|--------------------|-----------------------|--------------------|
 B|------------------------|--------------------|-----------------------|--------------------|
 G|------------------------|-------11-----------|-----------------------|-------11-----------|
 D|-11---11-11-11-11-11-11-|-11-11-11-9---9-9-9-|-11--11-11-11-11-11-11-|-11-11-11-9---9-9-9-|
 A|-11---11-11-11-11-11-11-|-11-11-9--9---9-9-9-|-11--11-11-11-11-11-11-|-11-11-9--9---9-9-9-|
 E|-9----9--9--9--9--9--9--|-9--9--9--7---7-7-7-|-9---9--9--9--9--9--9--|-9--9--9--7---7-7-7-|

| d d u d u d u | d u d u u d u | d d u d u d u | d u d u u d u |
| 1 + 2 + 3 + 4 + | 1 + 2 + 3 + 4 + | 1 + 2 + 3 + 4 + | 1 + 2 + 3 + 4 + |
[C#5] [F5] [B5] [D5]  
 
 e|------------------------|--------------------|------------------------|
 B|------------------------|--------------------|------------------------|
 G|------------------------|-------11-----------|------------------------|
 D|-11---11-11-11-11-11-11-|-11-11-11-9---9-9-9-|-12---12-12-12-12-12-12-|
 A|-11---11-11-11-11-11-11-|-11-11-9--9---9-9-9-|-12---12-12-12-12-12-12-|
 E|-9----9--9--9--9--9--9--|-9--9--9--7---7-7-7-|-10---10-10-10-10-10-10-|

| 1 + 2 + 3 + 4 + | 1 + 2 + 3 + 4 + | 1 + 2 + 3 + 4 + |
[B5]To-[C#5]day
[C#5]Every[F5]thing [B5]sucks to[C#5]day
[C#5]Every[F5]thing [B5]sucks to[C#5]day
[C#5]Every[F5]thing [B5]sucks to[D5]day
[Verse 2] 
[A5] [D5] [G5] [A5]  
 
 e|-----------------|-----------------|-----------------|-----------------|
 B|-----------------|-----------------|-----------------|-----------------|
 G|-----------------|-----------------|-7---7-7---------|-----------------|
 D|-7---7-7-7-7-7-7-|-----7-7-7-7-7---|-7---7-7-5-5-5/7-|---7-7-7-7-7-7---|
 A|-7---7-7-7-7-7-7-|-----7-7-7-7-7---|-5---5-5-5-5-5/7-|---7-7-7-7-7-7---|
 E|-5---5-5-5-5-5-5-|-----5-5-5-5-5---|---------3-3-3/5-|---5-5-5-5-5-5---|

| d d u d u d u | d u d u d | d d u d u d u | u d u d u d |
| 1 + 2 + 3 + 4 + | 1 + 2 + 3 + 4 + | 1 + 2 + 3 + 4 + | 1 + 2 + 3 + 4 + |
[A5] [D5] [G5] [A5]  
 
 e|-----------------|-----------------|-----------------|-----------------|
 B|-----------------|-----------------|-----------------|-----------------|
 G|-----------------|-----------------|-7-7-7-----------|-----------------|
 D|-7-7-7-7-7-7-7-7-|-7-7-7-7-7-7-7---|-7-7-7---5-5-5/7-|-7-7-7-7-7-7-7---|
 A|-7-7-7-7-7-7-7-7-|-7-7-7-7-7-7-7---|-5-5-5---5-5-5/7-|-7-7-7-7-7-7-7---|
 E|-5-5-5-5-5-5-5-5-|-5-5-5-5-5-5-5---|---------3-3-3/5-|-5-5-5-5-5-5-5---|

| d u d u d u d u | d u d u d u d | d u d d u d u | d u d u d u d |
| 1 + 2 + 3 + 4 + | 1 + 2 + 3 + 4 + | 1 + 2 + 3 + 4 + | 1 + 2 + 3 + 4 + |
[A5]Right girl didn't call and the wrong one's knockin'
[D5]Everything [G5]sucks to[A5]day
[A5]Flat tire on my car so I guess I'm walkin‚??
[D5]Everything [G5]sucks to[A5]day
[Precborus 2] 
| B (9th fret harmonic) D5 | C#5 B5 A5 | G#5 | E5 B5 |
 
 e|-7----------|-----------------|-----------------|-----------------|
 B|-7----------|-----------------|-----------------|-----------------|
 G|-8----------|-----------------|-----------------|-9---------------|
 D|-9-------12-|---11--9---7-----|-6---6-6-6-6-6---|-9---9---9-9-9-9-|
 A|-9-------12-|---11--9---7-----|-6---6-6-6-6-6---|-7---9---9-9-9-9-|
 E|-7-------10-|---9---7---5-----|-4---4-4-4-4-4---|-----7---7-7-7-7-|

| d d u d u d u | u u u | d d u d u d | d d d u d u |
| 1 + 2 + 3 + 4 + | 1 + 2 + 3 + 4 + | 1 + 2 + 3 + 4 + | 1 + 2 + 3 + 4 + |
| B (9th fret harmonic) D5 | C#5 B5 A5 | G#5 | E5 B5 | |
 
 e|-7----------|-----------------|-----------------|------------------|---------|
 B|-7----------|-----------------|-----------------|------------------|---------|
 G|-8----------|-----------------|-----------------|-9----------------|---------|
 D|-9-------12-|---11--9---7-----|-6---6-6-6-6-6---|-9---9-9-9-9-9-9--|---9-9---|
 A|-9-------12-|---11--9---7-----|-6---6-6-6-6-6---|-7---9-9-9-9-9-9--|---9-9---|
 E|-7-------10-|---9---7---5-----|-4---4-4-4-4-4---|-----7-7-7-7-7-7--|---7-7---|

| d d u d u d u | u u u | d d u d u d | d d u d u d u | u d |
PM . . . . . .
| 1 + 2 + 3 + 4 + | 1 + 2 + 3 + 4 + | 1 + 2 + 3 + 4 + | 1 + 2 + 3 + 4 + | 1 + 2 + |
B5 *9harm* D5 C#5 B5 A5
Taxman came and took my money
[G#5]Now all my other bills are [E5]gonna be [B5]late
B5 *9harm* D5 C#5 B5 A5
Girlfriend's movin‚?? in this morning
G#5 E5 B5(PM)
I don't think anything is gonna be okay
[Cborus 2] 
[C#5] [F5] [B5] [C#5] [F5] [B5]  
 
 e|------------------------|--------------------|-----------------------|--------------------|
 B|------------------------|--------------------|-----------------------|--------------------|
 G|------------------------|-------11-----------|-----------------------|-------11-----------|
 D|-11---11-11-11-11-11-11-|-11-11-11-9---9-9-9-|-11--11-11-11-11-11-11-|-11-11-11-9---9-9-9-|
 A|-11---11-11-11-11-11-11-|-11-11-9--9---9-9-9-|-11--11-11-11-11-11-11-|-11-11-9--9---9-9-9-|
 E|-9----9--9--9--9--9--9--|-9--9--9--7---7-7-7-|-9---9--9--9--9--9--9--|-9--9--9--7---7-7-7-|

| d d u d u d u | d u d u u d u | d d u d u d u | d u d u u d u |
| 1 + 2 + 3 + 4 + | 1 + 2 + 3 + 4 + | 1 + 2 + 3 + 4 + | 1 + 2 + 3 + 4 + |
[C#5] [F5] [B5] [D5]  
 
 e|------------------------|--------------------|------------------------|
 B|------------------------|--------------------|------------------------|
 G|------------------------|-------11-----------|------------------------|
 D|-11---11-11-11-11-11-11-|-11-11-11-9---9-9-9-|-12---12-12-12-12-12-12-|
 A|-11---11-11-11-11-11-11-|-11-11-9--9---9-9-9-|-12---12-12-12-12-12-12-|
 E|-9----9--9--9--9--9--9--|-9--9--9--7---7-7-7-|-10---10-10-10-10-10-10-|

| 1 + 2 + 3 + 4 + | 1 + 2 + 3 + 4 + | 1 + 2 + 3 + 4 + |
[B5]To-[C#5]day
[C#5]Every[F5]thing [B5]sucks to[C#5]day
[C#5]Every[F5]thing [B5]sucks to[C#5]day
[C#5]Every[F5]thing [B5]sucks to[D5]day
[Solo] - not perfect, will update when possible
[E5] [E5] [A5] [D5] [E5]  
 
 e|-----------------|-----------------|-----------------|-------------------|
 B|-----------------|-----------------|-----------------|-------------------|
 G|-----------------|-----------------|-----------------|-------------------|
 D|-----------------|---------------5-|7b9-9br7-5-------|-------------------|
 A|-----------------|---------7---7---|-------------7-5-|5h7----------------|
 E|-0---------------|-----------------|-----------------|-------------------|

| 1 + 2 + 3 + 4 + | 1 + 2 + 3 + 4 + | 1 + 2 + 3 + 4 + | 1 + 2 + 3 + 4 + |
(Hit hard and let ring)
[E5] [E5] [A5] [D5] [E5]  
 
 e|------------------|-------------------|------------------------|-------------------|
 B|--------------8b--|-10br--8---8-----8-|-8/12----12-12/15----15-|-15h17-17--17------|
 G|-7/9‚??7b---9-------|---------9-----9---|-9/13-13----13/16-16----|-16----16--16------|
 D|------------------|-------------------|------------------------|-------------------|
 A|------------------|-------------------|------------------------|-------------------|
 E|------------------|-------------------|------------------------|-------------------|

| 1 + 2 + 3 + 4 + | 1 + 2 + 3 + 4 + | 1 + 2 + 3 + 4 + | 1 + 2 + 3 + 4 + |
[Precborus 3] 
| B (9th fret harmonic) D5 | C#5 B5 A5 | G#5 | E5 B5 |
 
 e|-7----------|-----------------|-----------------|-----------------|
 B|-7----------|-----------------|-----------------|-----------------|
 G|-8----------|-----------------|-----------------|-9---------------|
 D|-9-------12-|---11--9---7-----|-6---6-6-6-6-6---|-9---9---9-9-9-9-|
 A|-9-------12-|---11--9---7-----|-6---6-6-6-6-6---|-7---9---9-9-9-9-|
 E|-7-------10-|---9---7---5-----|-4---4-4-4-4-4---|-----7---7-7-7-7-|

| d d u d u d u | u u u | d d u d u d | d d d u d u |
| 1 + 2 + 3 + 4 + | 1 + 2 + 3 + 4 + | 1 + 2 + 3 + 4 + | 1 + 2 + 3 + 4 + |
| B (9th fret harmonic) D5 | C#5 B5 A5 | G#5 | E5 B5 | |
 
 e|-7----------|-----------------|-----------------|------------------|---------|
 B|-7----------|-----------------|-----------------|------------------|---------|
 G|-8----------|-----------------|-----------------|-9----------------|---------|
 D|-9-------12-|---11--9---7-----|-6---6-6-6-6-6---|-9---9-9-9-9-9-9--|---9-9---|
 A|-9-------12-|---11--9---7-----|-6---6-6-6-6-6---|-7---9-9-9-9-9-9--|---9-9---|
 E|-7-------10-|---9---7---5-----|-4---4-4-4-4-4---|-----7-7-7-7-7-7--|---7-7---|

| d d u d u d u | u u u | d d u d u d | d d u d u d u | u d |
PM . . . . . .
| 1 + 2 + 3 + 4 + | 1 + 2 + 3 + 4 + | 1 + 2 + 3 + 4 + | 1 + 2 + 3 + 4 + | 1 + 2 + |
B5 *9fr harm.* D5 C#5 B5 A5
Got up on the wrong side of life this morning
[G#5]Nothing today is gonna [E5]go my [B5]way
B5 *9fr harm.* D5 C#5 B5 A5
Horoscope told me lies this morning
G#5 E5 B5(PM)
I don't think anything is gonna be okay
[Cborus 3 / Outro] 
[C#5] [F5] [B5] [C#5] [F5] [B5]  
 
 e|------------------------|--------------------|-----------------------|--------------------|
 B|------------------------|--------------------|-----------------------|--------------------|
 G|------------------------|-------11-----------|-----------------------|-------11-----------|
 D|-11---11-11-11-11-11-11-|-11-11-11-9---9-9-9-|-11--11-11-11-11-11-11-|-11-11-11-9---9-9-9-|
 A|-11---11-11-11-11-11-11-|-11-11-9--9---9-9-9-|-11--11-11-11-11-11-11-|-11-11-9--9---9-9-9-|
 E|-9----9--9--9--9--9--9--|-9--9--9--7---7-7-7-|-9---9--9--9--9--9--9--|-9--9--9--7---7-7-7-|

| d d u d u d u | d u d u u d u | d d u d u d u | d u d u u d u |
| 1 + 2 + 3 + 4 + | 1 + 2 + 3 + 4 + | 1 + 2 + 3 + 4 + | 1 + 2 + 3 + 4 + |
C#5 F5 B5 B5/C#5 B5/C#5 B5/C#5 B5/C#5 | B5/C#5
 
 e|------------------------|--------------------|-----------------------------|------|
 B|------------------------|--------------------|-----------------------------|------|
 G|------------------------|-------11-----------|-----------------------------|------|
 D|-11---11-11-11-11-11-11-|-11-11-11-9---9-9-9-|-9/11---9/11---9/11---9/11---|-9/11-|
 A|-11---11-11-11-11-11-11-|-11-11-9--9---9-9-9-|-9/11---9/11---9/11---9/11---|-9/11-|
 E|-9----9--9--9--9--9--9--|-9--9--9--7---7-7-7-|-7/9----7/9----7/9----7/9----|-7/9--|

| 1 + 2 + 3 + 4 + | 1 + 2 + 3 + 4 + | 1 + 2 + 3 + 4 + |
[B5]To-[C#5]day
[C#5]Every[F5]thing [B5]sucks to[C#5]day
[C#5]Every[F5]thing [B5]sucks to[C#5]day
[C#5]Every[F5]thing [B5]sucks to[B5/C#5]day [B5/C#5] [B5/C#5] [B5/C#5] [B5/C#5]

Important: The song above is NOT stored on the Chordie server. The original song is hosted at www.azchords.com. Chordie works as a search engine and provides on-the-fly formatting. Chordie does not index songs against artists'/composers' will. To remove this song please click here.

Text color:
Chord color:
Chord grids: 
Font size:    
Page size: 

A5 B5 C#5 D5 E5 F5 G#5 G5
Rate #1 of 1 versions

Jango Player

Login - add to songbook

SHARE PAGE  



You need to log in to post comments