Guitar Tabs, Chords and Lyrics
Update 25:10. 13:00. Site is back up running again. Songbooks are recovered. Woring on getting search back up..


She Misses Him on Sunday the Most  Diamond Rio

Diamond Rio - She Misses On Sunday The Most (with picking)
Tune bottom E string to D.
Follow these chord shapes for chorus, follow picking pattern for verse.
G = x55433 Asus = x02230
A = x02220 D = 000232
D/F# = 4x0232 F#m = x44222
Em = 222000
***********************************************************************
A Asus G (x3)
INTRO
They were quite a pair[A], [Asus] [G] the way that love should be[A].[Asus] [G]
They still held hands[A] [Asus] [G] for the world to [Bm]see.
She's [E]thankful that she [Asus]had him [A]all those [D]years,[D/Db] [D/B]
But she [E]still has days she [A]can't hold [Asus]back the [A]tears.
She [G]misses their Monday night [Asus]bowling [A]league,
[D]When they‚??d wear thei[D/F#]r matchin[G]g shirt[F#m]s
She [Em]misses their Wednesday night [Asus]dinner [A]out,
As [D]soon as he got [D/F#]home from [G]work.[F#m]
And [Em]Saturday morning [Asus]sleeping [A]late,
[Bm]Holding each [A]other [G]close, [F#m]
Em Asus A A Asus G (x3)
But she misses him on Sun - day the most.
[G]She sits alone[A] [Asus] [G] on that same old pew a[A]ga[Asus]in.[G]
His tenor voice[A] [Asus] [G] still echoes now and [Bm]then.
It brings back [E]all those memories of [Asus]him there [A]by her [D]side.[D/Db] [D/B]
[E]What she‚??d give fo[A]r one mor[Asus]e Sunda[A]y drive.
She [G]misses their Monday night [Asus]bowling [A]league,
[D]When they‚??d wear thei[D/F#]r matchin[G]g shirt[F#m]s
She [Em]misses their Wednesday night [Asus]dinner [A]out,
As [D]soon as he got [D/F#]home from [G]work.[F#m]
And [Em]Saturday morning [Asus]sleeping [A]late,
[Bm]Holding each [A]other [G]close, [F#m]
Em Asus A A Asus G (x2)
But she misses him on Sun - day the most.
Em Asus A A Asus G (x3, strum final G)
But she misses him on Sun - day the most.
***********************************************************************
INTRO, END OF CHORUS & END OF SONG (repeat as indicated on lyrics)
[A] [Asus] [G]  
 
 E------------------------------|
 B-------2-3----0----3---3------|
 G-------2-2----0--0---0---0----|
 D--------0---------0---0---0---|
 A------------------------------|
 D--0h2h4---------5---5---5-----|

PICKING STYLE IN VERSE
[G] [A] [Asus] [G] [A] [Asus] [G] 
 
 E-----------------------------------------------------------------
 B-----3---3--------2-3----0----3---3--------2-3----0----3---3-----
 G---0---0---0------2-2----0--0---0---0------2-2----0--0---0---0---
 D----0---0---0------0---------0---0---0------0---------0---0---0--
 A-----------------------------------------------------------------
 D--5---5---5--0h2h4---------5---5---5--0h2h4---------5---5---5----

[A] [Asus] [G] [Bm] [E] [Asus] [A] 
 
 E----------------------------------------------------------
 B-------2-3----0----3---3---3----3---3----0---0-3--3-2--2--
 G-------2-2----0--0---0---0-----4--4----1-1-1-1---2----2---
 D--------0---------0---0---0---4----4----2---2---2----2----
 A-----------------------------2---2-------------0----0-----
 D--0h2h4---------5---5---5-------------2---2---------------

[D] [D/Db] [D/B] [E] [A] [Asus] [A] 
 
 E--------------------------------------------0---|
 B--3---3-3--3-3--3---3----0---0--2--2-3----------|
 G-----2----2----2---2---1-1--1-----2----2--------|
 D--0-0----0----0---0-----2--2-----2----2---------|
 A--------4----2---2--------------0----2---2/4----|
 D----------------------2---2---------------------|


Important: The song above is NOT stored on the Chordie server. The original song is hosted at www.azchords.com. Chordie works as a search engine and provides on-the-fly formatting. Chordie does not index songs against artists'/composers' will. To remove this song please click here.

Text color:
Chord color:
Chord grids: 
Font size:    
Page size: 

A Asus Bm D D/B D/F# E Em F#m G
Rate #1 of 2 versions

Login - add to songbook

SHARE PAGE  




You need to log in to post comments