Guitar Tabs, Chords and Lyrics
Major upgrade!! After one year development the new version of Chordie is now online! Please give feedback.


Sideways   Dierks Bentley

 
 E[-----------------------------------------------------------------------------------]
 B[--6--6--6--6--------------6--6--6--6-----------------------------------------------]
 G[--5b-5b-5b-5b---8\--------5b-5b-5b-5b---8\-----------------------------------------]
 D[-----------------8\---------------------8\---------6-6--6-6--3-1h3-----------------]
 A[-----------------------------------------------------------5h6---------------------]
 E[-----------------------------------------------------------------------------------]
 E[------------------------------------------------------13\----11\---6--6--------------]
 B[------------6--------------6-----6-------6------------13\----11\---6--6---6/8b-------]
 G[------5--5â??5b-----------5--5â??5b-5-5b(7)-- ------------------------------5------------]
 D[---/6--------------------6-----------------------------------------------------------]
 A[-------------------------------------------------------------------------------------]
 E[-------------------------------------------------------------------------------------]
 E[----------13-13\11---11\6-6---------------6--------------------------]
 B[----------13â??13\11---11------9-6------------9-6--------10h11---------]
 G[---13/15-------------------------8b-------------8-6b-6/10-10---------]
 D[-------------------------------------6h8-----------------------------]
 A[---------------------------------------------------------------------]
 E[---------------------------------------------------------------------]


Important: The song above is NOT stored on the Chordie server. The original song is hosted at www.azchords.com. Chordie works as a search engine and provides on-the-fly formatting. Chordie does not index songs against artists'/composers' will. To remove this song please click here.

This song is displayed as text-only. Transposing and tuning is only available for chordpro-songs.
Rate #1 of 12 versions

Jango Player

Login - add to songbook

SHARE PAGE  




You need to log in to post comments