Guitar Tabs, Chords and Lyrics
Update 25:10. 13:00. Site is back up running again. Songbooks are recovered. Woring on getting search back up..


Helden und Diebe  Die Toten Hosen

Helden und Diebe
-->Die Griffbilder dazu<--
[Intro] 
[Em]  
 
 E |-(5)-------------|:-----------------|-----------------:|
 H |-----------------|:-----------------|-----------------:|
 G |-----------------|:-----------------|-----------------:|
 D |-----------------|:-----9-----------|-----9---9-------:|
 A |-----------------|:---7-------------|---7---7--7------:|
 E |-----------------|:-0---------------|-0---------------:|

[Am] [Gm] [Am]  
 
 E |-----------------|-----------------|-----------------|-----------------|
 H |-----------------|-----------------|-----------------|-----------------|
 G |-----9-----------|-----9---9-------|-----9-----------|-----9---9-------|
 D |---7-------------|---7---7---7-----|-5-7-------------|---7---7---7-----|
 A |-0---------------|-0---------------|-----------------|-9---------------|
 E |-----------------|-----------------|-----------------|-----------------|

Em 4x Am 4x
 
 E |-----------------|-----0-------0---|
 H |-----0-------0---|-----------------|
 G |-----------------|---2---2---2---2-|
 D |---2---2-------2-|--------0h2------| 2x
 A |--------0h1h2----|-0---------------|
 E |-0---------------|-----------------|

[Em] [C] [j7] [D] [Dsus2] [D]  
 
 E |:-----------------|-----------------|---------0-------|
 H |:-----0-------0---|-----0-------0---|-----3-------3---|
 G |:---0-----0-------|---0-----0-------|---2-------2---2-|
 D |:-2-----2---2---2-|-2-----2---2---2-|-0-----0---------|
 A |:-----------------|-----------------|-----------------|
 E |:-----------------|-----------------|-----------------|

_ _ _ _ 1 _ _ _ _ _ _ _ _ 2 _ _ _ _
|D Dsus2 D | |Dsus2 D Dsus2|
 
 E |----------0-------:|--0-----------0----|
 H |------3-------3---:|------3---3--------|
 G |----2-------2---2-:|----2---2---2---2--|
 D |--0-----0---------:|-------------------|
 A |------------------:|-------------------|
 E |------------------:|-------------------|

Em 4x Am 2x
 
 E |-----------------|-----0---1---0---|
 H |-----------------|-----------------|
 G |-----4---5---4---|-2-2---2---2---2-|
 D |-2-2---2---2---2-|-----------------|
 A |-----------------|-----------------|
 E |-----------------|-----------------|

G6 2x F#7 2x Fj7 2x
 
 E |-----------------|-----------------|-----------------|
 H |-----5-------5---|-----5-------5---|-----5-------5---|
 G |-----------------|-----------------|-----------------|
 D |-5-5---5-5-5---5-|-4-4---4-4-4---4-|-3-3---3-3-3---3-|
 A |-----------------|-----------------|-----------------|
 E |-----------------|-----------------|-----------------|

Em 2x Am 2x
 
 E |----------------------|----------------------|
 H |-6p5h6p5--------------|-6p5h6p5--------------|
 G |----------------5-4-5-|----------------------|
 D |----------------------|----------------------|
 A |----------------------|----------------------|
 E |----------------------|----------------------|

[Em] [C] [j7] [D] [Dsus2] [D]  
 
 E |:-----------------|-----------------|---------0-------|
 H |:-----0-------0---|-----0-------0---|-----3-------3---|
 G |:---0-----0-------|---0-----0-------|---2-------2---2-|
 D |:-2-----2---2---2-|-2-----2---2---2-|-0-----0---------|
 A |:-----------------|-----------------|-----------------|
 E |:-----------------|-----------------|-----------------|

_ _ _ _ 1 _ _ _ _ _ _ _ _ 2 _ _ _ _
|D Dsus2 D | |Dsus2 D Dsus2| Em
 
 E |----------0-------:|--0-------------3--|-0--------|
 H |------3-------3---:|------3---------3--|-0--------|
 G |----2-------2---2-:|----2---2-------0--|-0--------|
 D |--0-----0---------:|----------------0--|-2--------|
 A |------------------:|----------------2--|-2--------|
 E |------------------:|----------------3--|-0--------|

[G] [Em]  
 
 E |-------3--|-0---------|----------|
 H |-------3--|-0---------|----------|
 G |-------0--|-0---------|----------|
 D |-------0--|-2---------|----------|
 A |-------2--|-2---------|----------|
 E |-------3--|-0---------|----------|

[1.Solo] 
[Em] [C] [G] [D]  
 
 E |-----------|----------|----------|----------|
 H |-5-------5-|----------|----------|----------|
 G |-----------|-5--------|----------|-7----4-7-|
 D |-----------|----------|-5--------|----------|
 A |-----------|----------|----------|----------|
 E |-----------|----------|----------|----------|

[Em] [C] [G] [B7]  
 
 E |-----------|-3------3-|----------|----------|
 H |--5--------|----------|-3----3-4-|-4-/-7----|
 G |-----------|----------|----------|----------|
 D |-----------|----------|----------|----------|
 A |-----------|----------|----------|----------|
 E |-----------|----------|----------|----------|

[1.Stropbe] 
Irgend[Em]wann in der frühen[C] Steinzeit haben[G] wir "Wir sind bereit!" g[D]eschrien.
Wir [Em]waren die Jungs von der [C]Opelgang und unser [G]Weg war noch das [Bsus4]Ziel.
"Ver[Em]schwendet eure Zeit und ko[C]mmt mit uns!", auf diesen Schl[G]achtruf waren wir st[D]olz.
Und [Em]keiner von uns hätte[C] je geglaubt, dass uns[G] wirklich mal jemand[Bsus4] folgt.
[1.Bridge] 
[Am] [Fj7]  
 
 E |:-----0-------0---|-----0-------0---|
 H |:---1-----1-------|---------1-------|
 G |:-2-----2---2---2-|---2---2---2---2-|
 D |:-----------------|-3---------------|
 A |:-----------------|-----------------|
 E |:-----------------|-----------------|

In all den Jahren hat sich viel geändert
[G]  
 
 E |-----------------|---------0-------:|
 H |-----3-------3---|-----3-------3---:|
 G |---0-----0-----0-|---0-------------:|
 D |-0-----0---0-----|-0-----0---0---0-:|
 A |-----------------|-----------------:|
 E |-----------------|-----------------:|

wir bescheissen uns da nicht selbst
Unsere Unschuld war nicht das Einzige
was unterwegs verloren ging.
[2.Solo] 
[Em] [C] [G] [D]  
 
 E |---------------|---------------|--------------|---------------|
 H |---------------|---------------|--------------|---------------|
 G |---------------|---------------|--------------|---------------|
 D |---------------|---------------|--------5-----|-4-------------|
 A |-7---------7-5-|-7---------5---|-5------------|-----------7-5-|
 E |---------------|-------------8-|--------------|---------------|

[Em] [C] [G] [Bsus4]  
 
 E |---------------|---------------|--------------|---------------|
 H |---------------|---------------|--------------|---------------|
 G |--------4------|--------4------|--------7-----|-4-------------|
 D |---5-7---------|---5-7---------|--------------|---------------|
 A |-7---------7-5-|-7---------5-3-|-5------------|---------------|
 E |---------------|---------------|--------------|---------------|

[2.Stropbe] 
Die selbstern[Em]annten Wahrheitsfi[C]nder, die uns h[G]eute auf den Fersen s[D]ind,[Dsus4] [D]
s[Em]uchen den Spi[C]on in uns, die R[G]atte, die das Schiff ve[Bsus4]rlässt.
Zuviel Fe[Em]rnsehshows, zuviel I[C]nterviews, viel zu o[G]ft verdächtig n[D]ett.
Und sie fr[Em]agen sich, ob das noch P[C]unk-Rock ist, oder w[G]ie man sowas eigentlich n[Bsus4]ennt.
[Refrain] 
Mal sind wir [Em]Helden und mal [C]Diebe, ange[G]klagt wegen Hochver[D]rat
an uns se[Em]lbst und der Verga[C]ngenheit, und de[G]m, was wir mal wa[Bsus4]ren.
[2.Solo] 
[Em] [C] [G] [D]  
 
 E |---------------|---------------|--------------|---------------|
 H |---------------|---------------|--------------|---------------|
 G |---------------|---------------|--------------|---------------|
 D |---------------|---------------|--------5-----|-4-------------|
 A |-7---------7-5-|-7---------5---|-5------------|-----------7-5-|
 E |---------------|-------------8-|--------------|---------------|

[Em] [C] [G] [Bsus4]  
 
 E |---------------|---------------|--------------|---------------|
 H |---------------|---------------|--------------|---------------|
 G |--------4------|--------4------|--------7-----|-4-------------|
 D |---5-7---------|---5-7---------|--------------|---------------|
 A |-7---------7-5-|-7---------5-3-|-5------------|---------------|
 E |---------------|---------------|--------------|---------------|

[3.Stropbe] 
Auf welches [Em]Lied sollen wir uns die Tr[C]eue schwören
und dass wir i[G]mmer noch die alten s[D]ind
Wie oft w[Em]ollt ihr noch das "Wort zum S[C]onntag" hör'n
Wie lang wollt i[G]hr noch zu uns s[Bsus4]tehen
[1.Bridge] 
Wann kommt der Tag, an dem ihr ruft: "Es reicht, wir haben genug!
Wir möchten endlich andere Lieder und eure Zeit ist um!"
[Refrain] (H7 statt Hsus4)
Mal sind wir Helden und mal Diebe, je nachdem, wie der Wind sich dreht. Aus
welcher Richtung er von morgen kommt, fragen wir uns nicht.
[?bergang] 
[Em] [Cj7] [G]  
 
 E |-0---0---0---0---|-----------------|-----------------|-----------------|
 H |---0---0---0-----|-1---1---1---1---|-0---0---0---0---|-----------------|
 G |---------------2-|---0---0---0---0-|---0---0---0---0-|-0---0---0-------|
 D |-----------------|-----------------|-----------------|---0---0---0-4-0-|
 A |-----------------|-----------------|-----------------|-----------------|
 E |-----------------|-----------------|-----------------|-----------------|

[2.Bridge] 
[Am] [Fj7] [G6]  
 
 E |:----------------|-----------------|-----------------|-----------------:|
 H |:----------------|-----------------|-----------------|-----0---1---0---:|
 G |:----------------|-----------------|-----------------|---0-------------:|
 D |:-7--------------|--3--------------|--5--------------|-0-----0---0---0-:|
 A |:-7--------------|--3--------------|--5--------------|-----------------:|
 E |:-5--------------|--1--------------|--3--------------|-----------------:|

Wir haben uns um den Verstand gesoffen und sind irgendwie asozial
Wir sind höflich und bescheiden, die netten Jungs von nebenan
 
 E |-----------------|-----------------|-----------------|-----0---1---0---|
 H |-----------------|-----------------|-----------------|---1-------------|
 G |--7--------------|--3--------------|--5--------------|-0-----0---------|
 D |--7--------------|--3--------------|--5--------------|-----------0---0-|
 A |--5--------------|--1--------------|--3--------------|-----------------|
 E |-----------------|-----------------|-----------------|-----------------|

Wir sind Propheten, wir sind Lügner. Mal sind wir falsch und manchmal echt
 
 E |-----------------|-----------------|-----------------|-----------------|
 H |-----------------|-----------------|-----------------|-----------------|
 G |--7--------------|--3--------------|--5--------------|--5--------------|
 D |--7--------------|--3--------------|--5--------------|--5--------------|
 A |--5--------------|--1--------------|--3--------------|--3--------------|
 E |-----------------|-----------------|-----------------|-----------------|

Vergesst einfach den ganzen Mist, den man sich über uns erzählt.
[Refrain] (H7 statt Hsus4)
Wir sind Helden, wir sind Diebe, angeklagt wegen Hochverrat an einer Idee, die
seit Jahren tot ist, und die man längst beerdigt hat.
Wir sind Helden, wir sind Diebe, wir nehmen's so, wie es grad kommt. Und wenn
ihr an etwas glauben wollt, glaubt an euch selbst und nicht an uns!
Em 3x
 
 E |-----------------|--0--------------|
 H |-----0-------0---|--0--------------|
 G |-----------------|--0--------------|
 D |---2---2-------2-|--2--------------|
 A |--------0h1h2----|--2--------------|
 E |-0---------------|--0--------------|


Important: The song above is NOT stored on the Chordie server. The original song is hosted at www.azchords.com. Chordie works as a search engine and provides on-the-fly formatting. Chordie does not index songs against artists'/composers' will. To remove this song please click here.

Text color:
Chord color:
Chord grids: 
Font size:    
Page size: 

Am B7 Bsus4 C D Dsus2 Dsus4 Em G G6 Gm
Rate #1 of 1 versions

Login - add to songbook

SHARE PAGE  



You need to log in to post comments