Guitar Tabs, Chords and Lyrics
Update 25:10. 13:00. Site is back up running again. Songbooks are recovered. Woring on getting search back up..


Kein Alkohol (ist auch keine Lösung)!  Die Toten Hosen

Die toten Hosen - Kein Alkohol ist auch keine Lösung
Wenn ihr Fehler oder Verbesserungen findet, mailt mir!
Ansonsten viel Spa? damit.
INTRO:
[C#] [F#] [G#] [/]  
[C#] [F#] [G#] [/]  
Genauer:
[/] [/] [/] [/]  
 
 e |--------------------------------------------------|
 h |-6---6-6-6-6--------------------------------------|
 g |-6---6-6-6-6-3---3-3-3-3-5---5-5-5-5-5---5-5-5-5--|
 D |-6---6-6-6-6-4---4-4-4-4-6---6-6-6-6-6---6-6-6-6--|
 A |-4---4-4-4-4-4---4-4-4-4-6---6-6-6-6-6---6-6-6-6--|
 E |-------------2---2-2-2-2-4---4-4-4-4-4---4-4-4-4--|

VERS:
Es gibt [C#]Tage, die [F#]sollten nie [G#]enden[G#]
und [C#]Nächte, die[F#] sollten nie[G#] geh'n[G#]
es gibt [C#]Zeiten, da [F#]werd' ich ganz [G#]ruhig[G#]
und dann [C#]kann ich die [F#]Welt nüchtern[G#] seh'n[G#]
BRIDGE:
Doch [a#]meistens ist es wie [F#]immer
[C#]alles ist irgendwie [G#]grau
und [a#]manchmal kommt es noch [F#]schlimmer
wer [G#]ist schon bei sowas gut drauf?
Was kann man mit Sicherheit sagen
was wei? man schon wirklich genau
Ich hab mit dem Trinken mal angefang'n
Und vielleicht hör ich irgendwann auf
Ein klarer Kopf ist die beste Ruhe
Na klar, das kann schon sein
Es gibt so viel schlaue Sätze dazu
Und mir fällt auch einer ein
REFRAIN / CHORUS:
Kein Alko[C#]hol ist [G#]auch keine [C#]Lösung
( Beim letzten C# folgendes spielen: )
 
 e |-------------------------|
 h |-------7-7-7-6-6-6-6-6-6-|
 g |-6-6-6-6-6-6-6-6-6-6-6-6-|
 D |-6-6-6-6-6-6-6-6-6-6-6-6-|
 A |-4-4-4-4-4-4-4-4-4-4-4-4-|
 E |-------------------------|

Ich hab es [C#]immer [F#]wieder ver[G#]sucht
( Beim letzten G# folgendes spielen: )
 
 e |-------------------------|
 h |-------------------------|
 g |-------6-6-6-5-5-5-5-5-5-|
 D |-6-6-6-6-6-6-6-6-6-6-6-6-|
 A |-6-6-6-6-6-6-6-6-6-6-6-6-|
 E |-4-4-4-4-4-4-4-4-4-4-4-4-|

Kein Alko[a#]hol ist [F#]auch keine [G#]Lösung
Es würde[C#] geh'n, doch es[G#] geht nicht[C#] gut[F#] [G#]
2. VERS (verzerrt, mit palm muting):
Manchmal steh' ich morgens vor'm Spiegel
Und seh einen wildfremden Mann
Und zwei Augen, die mich dann fragen
Wann fängt das Leben endlich an
Und dann werd' ich leicht melancholisch
Und denk was passiert in mir
Ich kriege sentimentale Gefühle
Aber leider kein Feeling dafür
REFRAIN, dann die letzte Zeile:
Es würde[C#] geh'n, doch es[G#] geht nicht[C#] gut
SOLO:
 
 e |-------------------------------------------------------------------------|
 h |-------------------------------------------------7-6---------------------|
 g |-------------6-5---------------6-5---6---6-6-6-6-----6-------------4-3---|
 D |-6---6-6-6-6-----6-6---6-6-6-6-----6-6---6-6-6-6-------4---4-4-4-4-----4-|
 A |-6---6-6-6-6-------6---6-6-6-6-------4---4-4-4-4-------4---4-4-4-4-------|
 E |-4---4-4-4-4-------4---4-4-4-4-------------------------2---2-2-2-2-------|

|
Zweimal, beim zweiten Durchgang hier klingen lassen
INTERLUDE:
G# (klingen lassen)
Ganz ohne Drogen geht es nicht
Das [C#]wird auch immer so sein
und [G#]Jesus sah das genauso
denn aus [C#]Wasser machte er Wein[C] [a#]
vom [a#]Vatikan bis [F#]Taliban
[C#]sieht man das es [G#]stimmt
dass die [a#]ganzen Absti[F#]nenzler
noch [G#]immer die Schlimmsten sind
REFRAIN wie gehabt, letzte Zeile:
"Ich schei? auf meine Vorbildfunktion"
Refrain wiederholen, auf C# enden.

Important: The song above is NOT stored on the Chordie server. The original song is hosted at www.azchords.com. Chordie works as a search engine and provides on-the-fly formatting. Chordie does not index songs against artists'/composers' will. To remove this song please click here.

Text color:
Chord color:
Chord grids: 
Font size:    
Page size: 

C C# F# G#
Rate #1 of 1 versions

Login - add to songbook

SHARE PAGE  




You need to log in to post comments