Guitar Tabs, Chords and Lyrics
Major upgrade!! After one year development the new version of Chordie is now online! Please give feedback.


Strom  Die Toten Hosen

Schach Matt! Guten Tag![F#] Es ist alles in Ordnung,
ihr konnt' aufwachen, wir sind [B]wieder [C#]da,
wir sind [F#]Opfer, auser uns und auser Rand und Band,
und wir haben keine [B]Zeit fur [C#]Schlaf.
A E F# (h)
Hort her und offnet eure Ohr'n!
[A] Wir sind zu[E]ruck wie neu g[F#]ebor'n!
[F#] Dieses Lied hier ist unser Werk
und es ist geschrieben mit [B]unser'm [C#]Blut,
[F#] wir Bluten und wir horen nicht auf bis,
das der allerletzte [B]Tropfen [C#]kommt.
[A] Wir schwitzen[E] Larm aus uns h[F#]eraus!
[A] Und jeder Ton[E] frisst euch mit [C#]auf!
[D] Und alles [A] steht unter [B]Strom, vom
[D] ersten bis zum[A] letzten[B] Ton.
[G] Und alles [A] steht unter Str[D]ooo[B]ooom, vom
[G] ersten bis zum[A] letzten [B] Toooo[/G]oooon
( Break )
F# (h) - B - C# ( \A )
F# ~~~ (nur Anschlagen und klingen lassen im Orig.,
Am Anfang war der Larm, daher alle Noten in Klammern, fur den Bass)
und dieser Larm hort[(] n[B]ie[)]ma[(]ls[C#] au[)]f.
[(] [F#]Am [)]Tag als der Herr uns schuf,
da hat er uns i[(]n [B]La[)]rm [(]ge[C#]tau[)]cht.
[F#] Richtig giftig! Richtig wichtig!
Damit ihr uns nicht [B]falsch ver[C#]steht,
[F#] ein Gesang aus tausend Kehlen,
solange bis die [B]Luft we[C#]gbrennt.
[A] Gedanken die [E]wie Messer [F#]sind,
[A] fliegen auf Dich zu [E]und treffen [F#]nich!
D A H > 2x
Und alles steht unter Strom, vom
[D] ersten bis zum[A] letzten[B] Ton.
[G] Und alles [A] steht unter Str[D]ooo[B]ooom, vom
[G] ersten bis zum[A] letzten [B] Toooo[/G]oooon
[D] [A] [B]  
[D] [A] [B]  
[G] [A] [D] [B]  
[G] [A] [D] [B]  
[D] [A] [B]  
[D]D [A]A [B] <- (h)
F# Riff: (h)
( hier kann auch A gespielt werden )
 
 |-------------------------------------------------------|
 |-----------------------------------------------------!-|
 |----------------------------------------------4-4-/6-6-|
 |--4--4-4-4--4-4-4-4-4-4-4--4-4-4--4-4-4--4-4--4-4--x-x-|
 |--4--4-4-4--4-4-4-4-4-4-4--4-4-4--4-4-4--4-4--2-2-/4-4-|
 |--2--2-0-2--2-0-2-0-2-0-2--2-0-2--2-0-2--2-0---------!-|

Nachdem die Toten Hosen mit zwei Gitarren spielen, hier die zweite Variante furs Duett
 
 |-------------------------------------------------------|
 |-------------------------------------------------------|
 |----------------------------------------------4-4-2-2--|
 |--4--4-4-4--4-4-4-4-4-4-4--4-4-4--4-4-4--4-4--4-4-2-2--|
 |--4--4-4-4--4-4-4-4-4-4-4--4-4-4--4-4-4--4-4--2-2-0-0--|
 |--2--2-0-2--2-0-2-0-2-0-2--2-0-2--2-0-2--2-0-----------| 


Important: The song above is NOT stored on the Chordie server. The original song is hosted at www.azchords.com. Chordie works as a search engine and provides on-the-fly formatting. Chordie does not index songs against artists'/composers' will. To remove this song please click here.

Text color:
Chord color:
Chord grids: 
Font size:    
Page size: 

A B C# D E F# G
Rate #1 of 6 versions

Jango Player

Login - add to songbook

SHARE PAGE  




You need to log in to post comments