Guitar Tabs, Chords and Lyrics
Update 25:10. 13:00. Site is back up running again. Songbooks are recovered. Woring on getting search back up..


Goin Home  Dinosaur Jr.

Chords
[Fmaj7] [C] [G/B] [G7] [Am] [G#] [D5] [G#] [A#] [C7] [C9]  
 
 |-0-----0-------1??-0--4-----4--6--0--0-|
 |-1-----1--3----0??-1--4??----4--6--3--0-|
 |-2-----0--0----0??-2--5??-7--5--7--0--0-|
 |-3-----2--0----0??-2--6--7--6--8--2--2-|
 |-3-----3--2----2??-0--6--5--6--8--3--3-|
 |-1-------------3-----4-----4--6-------|

Intro/Verse/Outro
[Fmaj7] [C] [G/B] [G7]  
 
 |-----0-----0---------------------------------------|
 |-------1-----1--------1-------1------------3-------|
 |--------------------0---------0----------0---0-----|
 |-3-------3-----2------------2----------0-------0---|
 |------------------------3----------2---------------|
 |-------------------------------------------------3-|

[Am]  
 
 |-------1-----1--------0----------------0---3/5-----|
 |----------------------------1----------1-----------|
 |-----------0---0-------------------2---2-----------|
 |-----0---------------------------------------------|
 |---2--------------0--------------------------------|
 |---------------------------------------------------|

Break
[Fmaj7] [D5]  
 
 |-----0------------0------------------------------------------------|
 |-----1--------------1----------------------------------------------|
 |-----2------------------2-------------7---7-5------7-5---7---5---4-|
 |-3---3-----3---3----------------------7---7-7---7--7-7---7---7---0-|
 |----------------------------3-3-3/5---5---------5------------------|
 |-------------------------------------------------------------------|

[Fmaj7] [D5]  
 
 |-----0-----------0-----0------------------------------------------|
 |-----1-----1-------1-------1-1------------------------------------|
 |-----2---------------2---------2-----7---7-5------7-5---7---5---4-|
 |-3---3-------------------------------7---7-7---7--7-7---7---7---0-|
 |--------------------------------/5---5---------5------------------|
 |------------------------------------------------------------------|

Pre-chorus
[C] [C7] [C] [C9] [C] [G]  
 
 |-0-----0-0-----0---0-0-0-0-0-0-0-0-----0-0-----3---3-3---3-3-3-3-|
 |-1-----1-1-----3---3-1-1-0-0-1-1-1-----1-1-----0---0-0---0-0-0-0-|
 |-0-----0-0-----0---0-0-0-0-0-0-0-0-----0-0-----0---0-0---0-0-0-0-|
 |-2-----2-2-----2---2-2-2-2-2-2-2-2-----2-2-----0---0-0---0-0-0-0-|
 |-3-----3-3-----3---3-3-3-3-3-3-3-3-----3-3-----2---2-2---2-2-2-2-|
 |-----------------------------------------------3---3-3---3-3-3-3-|

Chorus
[C] [G]  
 
 |-0-----0-0-----0---0---0-0-0-0-0-3-----3-3-----3---3---3-3-3-3-3-|
 |-1-----1-1-----1---1---1-1-1-1-1-0-----0-0-----0---0---0-0-0-0-0-|
 |-0-----0-0-----0---0---0-0-0-0-0-0-----0-0-----0---0---0-0-0-0-0-|
 |-2-----2-2-----2---2---2-2-2-2-2-0-----0-0-----0---0---0-0-0-0-0-|
 |-3-----3-3-----3---3---3-3-3-3-3-2-----2-2-----2---2---2-2-2-2-2-|
 |---------------------------------3-----3-3-----3---3---3-3-3-3-3-|

[Fmaj7] [G#] [A#]  
 
 |----0-----1---0------0hp1-------4---4---4-4---6---6-6-6-6-6-6---|
 |----1-----1---1-----------1-----4---4---4-4---6---6-6-6-6-6-6---|
 |----2-----2---2-------------2---5---5---5-5---7---7-7-7-7-7-7---|
 |----3-----3---3---------------3-6---6---6-6---8---8-8-8-8-8-8---|
 |--------------------------------6---6---6-6---8---8-8-8-8-8-8---|
 |--------------------------------4---4---4-4---6---6-6-6-6-6-6---| 


Important: The song above is NOT stored on the Chordie server. The original song is hosted at www.azchords.com. Chordie works as a search engine and provides on-the-fly formatting. Chordie does not index songs against artists'/composers' will. To remove this song please click here.

Text color:
Chord color:
Chord grids: 
Font size:    
Page size: 

A# Am C C7 C9 D5 Fmaj7 G G# G/B G7
Rate #1 of 5 versions

Jango Player

Login - add to songbook

SHARE PAGE  



You need to log in to post comments