Guitar Tabs, Chords and Lyrics
Update 25:10. 13:00. Site is back up running again. Songbooks are recovered. Woring on getting search back up..


I Don't Think  Dinosaur Jr.

(The following text is in the "unknown-8bit" character set)
(Your display is set for the "US-ASCII" character set)
I DON^√?T THINK
Dinosaur Jr. - from the LP "Hand It Over"
Main Verse:
 
 e|---------------|-----------------|-----------------|------|
 B|---------------|-----------------|-----------------|-1^√?1--|
 G|---------------|---4-------------|---4-------------|-0^√?0--|
 D|-2-------------|-2---------------|-2---------------|-2^√?2--|
 A|-2-------------|-0---0-----------|-0---0-----------|-3^√?3--|
 E|-0-0-0-0^√?0-0-0-|-------0-0-0-0-0-|-------0-0-0-0-0-|------|

Pre-Chorus:
[A] [C] [G] [B]  
[A] [C] [G] [D]  
Chorus:
[G]I don^√?[B]t think too much[C] about it^√?[D]^√?^√?
The small trill at the end of the D:
 
 e|--------------|
 B|--------------|
 G|-2-2--2/0-----|
 D|----------2/0-|
 A|--------------|
 E|--------------|

Solo:
 
 e|-------15-------------------|-------------------------15-|
 B|-15/17----17/15-15-15-15----|-13/15-12-12-15-12-15/17----|
 G|-------------------------16-|----------------------------|
 D|----------------------------|----------------------------|
 A|----------------------------|----------------------------|
 E|----------------------------|----------------------------|
 |-------------------------------------------|
 |-17/15-15-13/15/12-12-10-12-12-12-13-12----|
 |----------------------------------------12-|
 |-------------------------------------------|
 |-------------------------------------------|
 |-------------------------------------------|
 |--------------15-----------------/19-19-|
 |----------/17----17/15-15---15----------|
 |-12^√?12----------------------------------|
 |-------12----------------12---12--------|
 |----------------------------------------|
 |----------------------------------------|
 |-20-19-15-17/15-------------------------------|
 |----------------15/17/15/13-13-12-13-12-13/15-|
 |----------------------------------------------|
 |----------------------------------------------|
 |----------------------------------------------|
 |----------------------------------------------|

I^√?m not exactly a virtuoso soloist, so this may be incorrect.

Important: The song above is NOT stored on the Chordie server. The original song is hosted at www.azchords.com. Chordie works as a search engine and provides on-the-fly formatting. Chordie does not index songs against artists'/composers' will. To remove this song please click here.

Text color:
Chord color:
Chord grids: 
Font size:    
Page size: 

A B C D G
Rate #2 of 5 versions

Jango Player

Login - add to songbook

SHARE PAGE  



You need to log in to post comments