Guitar Tabs, Chords and Lyrics
Major upgrade!! After one year development the new version of Chordie is now online! Please give feedback.


The Wanderer  Dion

The Wanderer
Well [D]I`m the type of guy who will never settle down.
Where pretty girls are, well you know that I`m around.
I [G]kiss `em and I love `em, cause to me they`re all the same.
I [D]hug `em and I squeeze `em, they don`t even know my name.
They call me the [A]wanderer, yeah, the [G]wanderer,
I roam [D]around, around, around, around.[A7]
Well, there is [D]Bo on my left arm and there`s Mary on my right.
And Jenny is the girl, well, that I`ll be with tonight.
And [G]when she asked me which one I love the best
I [D]tear over my shirt and show her Rosie on my chest.
Cause I`m the [A]wanderer, yeah, the [G]wanderer,
I roam a[D]round, around, around, around.
Bridge:
Well, I [A]roam from town to town,
I got a life without a care.
And I`m as happy as a clown,
I`m with my [B7]two fists of iron but I`m [E7]going nowhere.[A7]
Yeah, [D]I`m the type of guy that likes to roam around.
I`m never in one place, I roam from town to town.
And [G]when I find myself falling for some girl,
I [D]hop right into that car of mine, I drive around the world.
Yeah, I`m the [A]wanderer, yeah, the [G]wanderer,
I roam [D]around, around, around, around.[A7]
Solo:
 
 e:-------------------------------------------------------|
 B:-------------------------------------------------------|
 G:-7-7--7-7--7-7--7-7b-7~~~--7------7b-7b-7b-7~~~--7-----|
 D:-------------------------9---9\----------------9---9\--|
 A:-------------------------------------------------------|
 E:-------------------------------------------------------|
 e:-------------------------------------------------------|
 B:-------------------------------------------------------|
 G:-------------------------------------------------------|
 D:-5-7b-7b-7b-7b-7b----5-8b-8b-8b-8b-8b------------------|
 A:-------------------------------------------------------|
 E:-------------------------------------------------------|
 e:-------------------------------------------------------|
 B:-------------------------------------------------------|
 G:-------------------------------------------------------|
 D:-8b-8b-8b-7~~-7b-7b-7b-5~~---5-------------------------|
 A:---------------------------7---7-5~~-7-7-7-5~~~--------|
 E:-------------------------------------------------------|

Oh yeah, [D]I`m the type of guy that likes to roam around.
I`m never in one place, I roam from town to town.
and [G]when I find myself falling for some girl,
I [D]hop right into that car of mine, I drive around the world.
Cause I`m the [A]wanderer,yeah, the [G]wanderer,
I roam a[D]round, around, around, around.
Repead and fade out
Enjoy it! Please rate it! Comments are welcome!

Important: The song above is NOT stored on the Chordie server. The original song is hosted at www.azchords.com. Chordie works as a search engine and provides on-the-fly formatting. Chordie does not index songs against artists'/composers' will. To remove this song please click here.

Text color:
Chord color:
Chord grids: 
Font size:    
Page size: 

A A7 B7 D E7 G
Rate #1 of 10 versions

Jango Player

Login - add to songbook

SHARE PAGE  




You need to log in to post comments