Guitar Tabs, Chords and Lyrics
Login is temporarily disabled for some users. Do not panic. Will be back in an hour or two. DO NOT REREGISTER!!


Backstabber   Disciple

 
 D[--------------------------------]
 A[o------------------------------o]
 F[--------------------------------]
 C[--00-00-00---------3-5-7--8-7---]
 G[o-00-00-00--0-3-5--------------o]
 C[--00-00-00----------------------]

 


 


 Pre Chorus 1


 

 
 D[------------------------------------]
 A[o----------------------------------o]
 F[--7-00--9-00--10-00-----------------]
 C[--x-00--x-00--x--00---1010101010-8--]
 G[o-5-00--7-00--8--00---1010101010-8-o]
 C[----------------------1010101010-8--]

 


 


 Pre Chorus 2


 

 
 D[------------------------------]
 A[o----------------------------o]
 F[--7-00--5-00--10-00---888888--]
 C[--x-00--x-00--x--00---888888--]
 G[o-5-00--3-00--8--00---666666-o]
 C[------------------------------]

 


 


 Pre Chorus 3


 

 
 D[-------]
 A[-------]
 F[-------]

 


 C[-7-8-9-]


 G[-7-8-9-]


 C[-7-8-9-]


 


 Chorus


 

 
 D[---------------------------]
 A[o-------------------------o]
 F[--------15---131313131313--]
 C[--0-00--X--0-X-X-X-X-X-X---]
 G[o-0-00--17-0-151515151515-o]
 C[--0-00-----0---------------]

 


 


 Post Chorus


 

 
 D[-------]
 A[-------]
 F[-------]

 


 C[-7-5-3-]


 G[-7-5-3-]


 C[-7-5-3-]


 


 Post Chorus 2


 

 
 D[------]
 A[------]
 F[------]

 


 C[-7--5-]


 G[-7--5-]


 C[-7--5-]


 


 Intro Pt. 2


 

 
 D[-------------------]
 A[-------------------]
 F[-------------------]
 C[--------3-5-7--8-7-]
 G[-0-3-5-------------]
 C[-------------------]

 


 


 Bridge


 

 
 D[------------------------------]
 A[o----------------------------o]
 F[------------------------------]
 C[------------------------------]
 G[o-5------7------8------7-----o]
 C[----3-0----5-0----7-0----5-0--]

 


 


 Bridge 1st Ending


 D[-----]


 A[-----]


 F[-----]


 C[-----]


 G[-0-7-]


 C[-----]


 


 Bridge 2nd Ending


 

 
 D[---------]
 A[---------]
 F[---------]
 C[---------]

 


 G[-0-8-7-3-]


 

 
 C[---------]

 


 


 Nameless Other Something


 

 
 D[----------]
 A[----------]
 F[------5---]

 


 C[-0-00-x-0-]


 G[-0-00-3-0-]


 

 
 C[-0-00---0-]
 ----------------


Important: The song above is NOT stored on the Chordie server. The original song is hosted at www.azchords.com. Chordie works as a search engine and provides on-the-fly formatting. Chordie does not index songs against artists'/composers' will. To remove this song please click here.

This song is displayed as text-only. Transposing and tuning is only available for chordpro-songs.
Rate #1 of 3 versions

Jango Player

Login - add to songbook

SHARE PAGE  



You need to log in to post comments