Guitar Tabs, Chords and Lyrics
Server problems seems to be fixed. Chordie has been experiencing problems with songs disappearing. These issues now seems to be fixed, but still verifying the fix. If you find anything strange, please email admin@chordie.com.


Phoenix Rising   Disciple

 
 D|--------------------------------------------------------------------|
 A|--------------------------------------------------------------------|
 F|--------------------------------------------------------------------|
 C|---------0------3-------0------3-------0------3--------3-(3)/5------|
 G|---------0--------------0--------------0---------------3-(3)/5------|
 C|---/8b---0--3-5---0-3~--0--3-5---0-3~--0--3-5---5-3-0--3-(3)/5------|

 


 PM . . . . . . . . . . .


 


 

 
 D|-----------------------------------------------------------------------|
 A|-----------------------------------------------------------------------|
 F|-----------------------------------------------------------------------|
 C|------0------3-------0------3---5~--0------3--------3-(3)/5---0--------|
 G|------0--------------0--------------0---------------3-(3)/5---0--------|
 C|------0--3-5---0-3~--0--3-5---0-----0--3-5---5-3-0--3-(3)/5---0--------|

 


 PM . . . . . . . . . . .


 


 Verse 1


 0:24


 Guitar 1 (rhythm)


 

 
 |---0--- |---1---|
 |---3--- |---3---|
 |---2--- |---3---| x2
 |---0--- |---0---|
 |------- |-------|
 |------- |-------|

 


 


 Guitar 2 (lead)


 

 
 |---5--- |---5---|
 |---3--- |---3---|
 |---2--- |---3---| x2
 |---0--- |---0---|
 |------- |-------|
 |------- |-------|

 


 


 Chorus 0:35


 Guitar 1


 

 
 |----------------------------------------|---------|
 |----------------------------------------|---------|
 |----------------------------------------|---------|
 |---0-----/10-----10----\3------/5-------|--/11b---|
 |---0-----/10-----10----\3------/5----2x-|---------|
 |---0-----/10-----10----\3------/5-------|---------|

 


 


 0:57


 

 
 |----------------------------------------------------|
 |----------------------------------------------------|
 |-----------7b--------7b--------7b---10-12~-12-12~---|
 |------------------------------------10-----12-------|
 |------------------------------------8------10-------|
 |---0-0-0-0---3-0-0-0---0-0-0-0----------------------|
 |------------------------------------------------------|
 |------------------------------------------------------|
 |-----------7b--------7b-3-3-3-3-----------------------|
 |------------------------3-3-3-3-----------------------|
 |------------------------1-1-1-1-----------------------|
 |---0-0-0-0---0-0-0-0-------------6-5-3-5-6-5-3-5------|

 


 PM . . . . . . . .


 


 0:35


 Guitar 2


 

 
 |------------------------------3--------------------------------------|----------|
 |---------5----6------3---5--------------6----------------------------|---/15----|
 |---7-7-------------5-------------------------5-----------------------|----------|
 |---7---------------5---------------3-------------5-5-5-5-5-5-5-5-----|----------|
 |---5---------------3---------------3-------------5-5-5-5-5-5-5-5--2x-|----------|
 |-----------------------------------3-------------5-5-5-5-5-5-5-5-----|----------|

 


 


 0:57


 

 
 |----------------------------------------------------|
 |----------------------------------------------------|
 |---------------------------------------12~~~~~12~~~-|
 |-----------12b-------12b-------12b------------------|
 |----------------------------------------------------|
 |---0-0-0-0---0-0-0-0---0-0-0-0----------------------|
 |-------------------------------------------------------|
 |-------------------------------------------------------|
 |-------------------------------------------------------|
 |-----------12b-------12b-8-8-8-8-----------------------|
 |-------------------------8-8-8-8-----------------------|
 |---0-0-0-0---0-0-0-0-----8-8-8-8--6-5-3-5-6-5-3-5------|

 


 PM . . . . . . . .


 


 Both Guitars


 

 
 D|-----------------------------------------------------------------|
 A|-----------------------------------------------------------------|
 F|-----------------------------------------------------------------|
 C|------0------3-------0------3-------0------3--------3-(3)/5------|
 G|------0--------------0--------------0---------------3-(3)/5------|
 C|------0--3-5---0-3~--0--3-5---0-3~--0--3-5---5-3-0--3-(3)/5------|

 


 PM . . . . . . . . . . .


 


 

 
 D|-----------------------------------------------------------------------|
 A|-----------------------------------------------------------------------|
 F|-----------------------------------------------------------------------|
 C|------0------3-------0------3---5~--0------3--------3-(3)/5---0--------|
 G|------0--------------0--------------0---------------3-(3)/5---0--------|
 C|------0--3-5---0-3~--0--3-5---0-----0--3-5---5-3-0--3-(3)/5---0--------|

 


 PM . . . . . . . . . . .


 


 Verse 2 1:09


 Guitar 1


 

 
 |---5--- |---5---|
 |---3--- |---3---|
 |---2--- |---3---| x2
 |---0--- |---0---|
 |------- |-------|
 |------- |-------|

 


 


 Guitar 2


 

 
 |------------------------------------------------------|
 |------------------------------------------------------|
 |--------------------------7---------------------------|
 |--------------------------7---------------------------|
 |--------------------------5----------------/11\\\-----|
 |----scratch\------------------------------------------|

 


 


 Chorus 2x 1:43


 Guitar 1


 

 
 |----------------------------------------|---------|
 |----------------------------------------|---------|
 |----------------------------------------|--/10b---|
 |---0-----/10-----10----\3------/5-------|---------|
 |---0-----/10-----10----\3------/5----2x-|---------|
 |---0-----/10-----10----\3------/5-------|---------|

 


 


 2:05


 

 
 |----------------------------------------------------|
 |----------------------------------------------------|
 |-----------7b--------7b--------7b---10-12~-12-12~---|
 |------------------------------------10-----12-------|
 |------------------------------------8------10-------| \
 |---0-0-0-0---3-0-0-0---0-0-0-0----------------------| |

 


 |--2x


 

 
 |------------------------------------------------------| |
 |------------------------------------------------------| /
 |-----------7b--------7b-3-3-3-3-----------------------|
 |------------------------3-3-3-3-----------------------|
 |------------------------1-1-1-1-----------------------|
 |---0-0-0-0---0-0-0-0-------------6-5-3-5-6-5-3-5------|

 


 PM . . . . . . . .


 


 1:43


 Guitar 2


 

 
 |------------------------------3--------------------------------------|----------|
 |---------5----6------3---5--------------6----------------------------|---/15----|
 |---7-7-------------5-------------------------5-----------------------|----------|
 |---7---------------5---------------3-------------5-5-5-5-5-5-5-5-----|----------|
 |---5---------------3---------------3-------------5-5-5-5-5-5-5-5--2x-|----------|
 |-----------------------------------3-------------5-5-5-5-5-5-5-5-----|----------|

 


 


 2:05


 

 
 |----------------------------------------------------|
 |----------------------------------------------------|
 |---------------------------------------12~~~~~12~~~-|
 |-----------12b-------12b-------12b------------------|
 |----------------------------------------------------|
 |---0-0-0-0---0-0-0-0---0-0-0-0----------------------|
 |-------------------------------------------------------|
 |-------------------------------------------------------|
 |-------------------------------------------------------|
 |-----------12b-------12b-8-8-8-8-----------------------|
 |-------------------------8-8-8-8-----------------------|
 |---0-0-0-0---0-0-0-0-----8-8-8-8--6-5-3-5-6-5-3-5------|

 


 PM . . . . . . . .


 


 2:28


 Solo


 Guitar 1


 

 
 |---------------------------------------------------------------------------|
 |---------------------------------------------------------------------------|
 |---------------------------------------------------------------------------|
 |---------------------------------------------------------------------------|
 |---5-5-5-5---5-3-5-5-5---3-5-6-5-3-5-5-5---5-3-5-5-5-5---3-5-6-5-3-5-5-5---|
 |---------------------------------------------------------------------------|

 


 PM All


 


 

 
 |---------------------------------------------|
 |---------------------------------------------|
 |---------------------------------------------|
 |---------------------------------------------|
 |---5-3-5-5-5-5---3-5-6-5-3-5-5-5--3-5-5------|
 |---------------------------------------------|

 


 PM All


 


 (Guitar 2 just does various scratches and taps near the bridge)


 


 2:38


 Guitar 1


 

 
 |---------------|
 |---------------|
 |---------------|
 |---------------|
 |---------------|
 |---0-<repeat---|

 


 


 Guitar 2


 

 
 |-------------------------------------------------------------------|
 |---15-13-15-13-15--15--13-13---13-13-13----15--15\-13/-18\x\x\x\---|
 |-------------------------------------------------------------------|
 |-------------------------------------------------------------------|
 |-------------------------------------------------------------------|
 |-------------------------------------------------------------------|

 


 PM . . . .


 


 

 
 |---0-0h17-0h15-0h13-0h12-0-13h15p13-13-12-------------------------------------------------------|
 |------------------------------------------13---10b10b10b\7b---10b10b10b\7b---10-10--------------|
 |-----------------------------------------------10b10b10b\7b---10b10b10b\7b---10-10--13-12-10-14b|
 |------------------------------------------------------------------------------------------------|
 |------------------------------------------------------------------------------------------------|
 |------------------------------------------------------------------------------------------------|

 


 


 2:56


 Guitar 1


 

 
 |-----------------------------|
 |-----------------------------|
 |-----------------------------|
 |---------3-----------5-------|
 |---/11\--3-----------5-------|
 |---------3-----------5-------|

 


 


 Chorus


 

 
 |--------------------------------------------------------------------|
 |--------------------------------------------------------------------|
 |--------------------------------------------------------------------|
 |---0-----/10-----10----\3------/5-----------------------------------|
 |---0-----/10-----10----\3------/5---3*5*6*5*6*8*6*8*10*8*10*12*12---|
 |---0-----/10-----10----\3------/5-----------------------------------|

 


 PM . . . . . . . . . . . .


 


 3:13


 

 
 |----------------------------------------------------|
 |----------------------------------------------------|
 |-----------7b--------7b--------7b---10-12~-12-12~---|
 |------------------------------------10-----12-------|
 |------------------------------------8------10-------| 

 


 \


 

 
 |---0-0-0-0---3-0-0-0---0-0-0-0----------------------| 

 


 |


 |


 |--2x


 |[1] [2]


 


 |


 


 [/]  

 
 |-----------7b--------7b-|-3-3-3-3-----------------|-3----------------------7b--------2222---|
 |------------------------|-3-3-3-3-----------------|-3---------------------------------------|
 |------------------------|-1-1-1-1-----------------|-1---------------------------------------|
 |---0-0-0-0---0-0-0-0----|---------6-5-3-5-6-5-3-5-|----/8b-scratch\--3-0-0---3-0-0-0--------|

 


 PM . . . . . . . .


 


 2:56


 Guitar 2


 

 
 |----------------------------------------------------|
 |----------------------------------------------------|
 |----------------------------------------------------|
 |---------101010101010101012-12-12-12-12-12-12-12----|
 |---------8-8-8-8-8-8-8-8-10-10-10-10-10-10-10-10----|
 |----------------------------------------------------|
 |------------------------------3-------------------------------------------------------------------|
 |---------5----6------3---5--------------6---------------------------------------------------------|
 |---7-7-------------5-------------------------5----------------------------------------------------|
 |---7---------------5---------------3-------------5-5-5-5-5-5-5-5--3*5*6*5*6*8*6*8*10*8*10*12*12---|
 |---5---------------3---------------3-------------5-5-5-5-5-5-5-5----------------------------------|
 |-----------------------------------3-------------5-5-5-5-5-5-5-5----------------------------------|

 


 


 3:13


 

 
 |----------------------------------------------------|
 |----------------------------------------------------|
 |---------------------------------------12~~~~~12~~~-|
 |-----------12b-------12b-------12b------------------|
 |----------------------------------------------------|
 |---0-0-0-0---0-0-0-0---0-0-0-0----------------------|
 |-------------------------|-----------------------------|-------------------------------------5555|
 |-------------------------|-----------------------------|-------------------------------------3333|
 |-------------------------|-----------------------------|-------------------------------------2222|
 |-----------12b-------12b-|--8-8-8-8--------------------|---8----------------------12b------------|
 |-------------------------|--8-8-8-8--------------------|---8-------------------------------------|
 |---0-0-0-0---0-0-0-0-----|--8-8-8-8--6-5-3-5-6-5-3-5---|---8---/8b-scratch\--3-0-0---0-0-0-0-----|


Important: The song above is NOT stored on the Chordie server. The original song is hosted at www.azchords.com. Chordie works as a search engine and provides on-the-fly formatting. Chordie does not index songs against artists'/composers' will. To remove this song please click here.

This song is displayed as text-only. Transposing and tuning is only available for chordpro-songs.
Rate #1 of 1 versions

Jango Player

Login - add to songbook

SHARE PAGE  



You need to log in to post comments