Guitar Tabs, Chords and Lyrics
Server problems seems to be fixed. Chordie has been experiencing problems with songs disappearing. These issues now seems to be fixed, but still verifying the fix. If you find anything strange, please email admin@chordie.com.


Unbroken   Disciple

 
 D|------19---------14/15------14p12------|
 A|-17~-----17-15~--------12~--------10~--|
 F|---------------------------------------|
 C|---------------------------------------|
 G|---------------------------------------|
 C|---------------------------------------|

 


 


 [Cborus] 


 


 

 
 D|---------------------------------------------------------------------------|
 A|---------------------------------------------------------------------------|
 F|---------------------------------------------------------------------------|
 C|---------------------------------------------------------------------------|
 G|-2~~-2-2~-5~~-5-5~-0~~-0-0~-7~~-7-7~--2~~-2-2~-5~~-5-5~-0~~-0-0~~-0~~-0-0--|
 C|-2~~-2-2~-5~~-5-5~-0~~-0-0~-7~~-7-7~--2~~-2-2~-5~~-5-5~-0~~-0-0~~-0~~-0-0--|
 D|---------------------------------------------------------------------------|
 A|---------------------------------------------------------------------------|
 F|---------------------------------------------------------------------------|
 C|-5~~-5-X------------------------------5-5-5-5-5-5-5-5-7-7-7-7-77-----------|
 G|-3~~-3-X-X-2~~-2-2-2--5~~-5--0~~-0-0--3-3-3-3-3-3-3-3-5-5-5-5-55-----------|
 C|---------X-2~~-2-2-2--5~~-5--0~~-0-0---------------------------------------|

 


 


 [Post Cborus] 


 


 

 
 D|-/14-14-14-15-15-15--------------------------------14-14-14-15-15-15-------------17-17-17-17-17-17-|
 A|--------------------15-15-15-15-15-15-15-15-15-15--------------------15-15-15-15-------------------|
 F|---------------------------------------------------------------------------------------------------|
 C|---------------------------------------------------------------------------------------------------| x2
 G|---------------------------------------------------------------------------------------------------|
 C|---------------------------------------------------------------------------------------------------|

 


 


 [Verse] 


 


 

 
 D|------19---------14/15------14p12------|
 A|-17~-----17-15~--------12~--------10~--|
 F|---------------------------------------|
 C|---------------------------------------|
 G|---------------------------------------|
 C|---------------------------------------|

 


 


 [Cborus] 


 


 

 
 D|---------------------------------------------------------------------------|
 A|---------------------------------------------------------------------------|
 F|---------------------------------------------------------------------------|
 C|---------------------------------------------------------------------------|
 G|-2~~-2-2~-5~~-5-5~-0~~-0-0~-7~~-7-7~--2~~-2-2~-5~~-5-5~-0~~-0-0~~-0~~-0-0--|
 C|-2~~-2-2~-5~~-5-5~-0~~-0-0~-7~~-7-7~--2~~-2-2~-5~~-5-5~-0~~-0-0~~-0~~-0-0--|
 D|---------------------------------------------------------------------------|
 A|---------------------------------------------------------------------------|
 F|---------------------------------------------------------------------------|
 C|-5~~-5-X------------------------------5-5-5-5-5-5-5-5-7-7-7-7-77-----------|
 G|-3~~-3-X-X-2~~-2-2-2--5~~-5--0~~-0-0--3-3-3-3-3-3-3-3-5-5-5-5-55-----------|
 C|---------X-2~~-2-2-2--5~~-5--0~~-0-0---------------------------------------|

 


 


 [Post Cborus] 


 


 

 
 D|-/14-14-14-15-15-15--------------------------------14-14-14-15-15-15-------------17-17-17-17-17-17-|
 A|--------------------15-15-15-15-15-15-15-15-15-15--------------------15-15-15-15-------------------|
 F|---------------------------------------------------------------------------------------------------|
 C|---------------------------------------------------------------------------------------------------| x2
 G|---------------------------------------------------------------------------------------------------|
 C|---------------------------------------------------------------------------------------------------|

 


 


 [Bridge] 


 


 

 
 D|---------------------------------------------------------------------------|
 A|----15------12br------15~------15-------------15b-15-13-12-----------------|
 F|-14b--14b~~-----12/14------14b---(14)r--14-12--------------14-12-----------|
 C|---------------------------------------------------------------------------|
 G|---------------------------------------------------------------------------|
 C|---------------------------------------------------------------------------|
 D|-------------------------15-17br-------------------------------------------|
 A|----15-----------15-15h17--------------------------------------------------|
 F|-14b---14b--14h16----------------------------------------------------------|
 C|---------------------------------------------------------------------------|
 G|---------------------------------------------------------------------------|
 C|---------------------------------------------------------------------------|

 


 


 [Cborus] 


 


 

 
 D|---------------------------------------------------------------------------|
 A|---------------------------------------------------------------------------|
 F|---------------------------------------------------------------------------|
 C|---------------------------------------------------------------------------|
 G|-2~~-2-2~-5~~-5-5~-0~~-0-0~-7~~-7-7~--2~~-2-2~-5~~-5-5~-0~~-0-0~~-0~~-0-0--|
 C|-2~~-2-2~-5~~-5-5~-0~~-0-0~-7~~-7-7~--2~~-2-2~-5~~-5-5~-0~~-0-0~~-0~~-0-0--|
 D|---------------------------------------------------------------------------|
 A|---------------------------------------------------------------------------|
 F|---------------------------------------------------------------------------|
 C|-5~~-5-X------------------------------5-5-5-5-5-5-5-5-7-7-7-7-77-----------|
 G|-3~~-3-X-X-2~~-2-2-2--5~~-5--0~~-0-0--3-3-3-3-3-3-3-3-5-5-5-5-55-----------|
 C|---------X-2~~-2-2-2--5~~-5--0~~-0-0---------------------------------------|

 


 


 [Post Cborus] 


 


 

 
 D|-/14-14-14-15-15-15--------------------------------14-14-14-15-15-15-------------17-17-17-17-17-17-|
 A|--------------------15-15-15-15-15-15-15-15-15-15--------------------15-15-15-15-------------------|
 F|---------------------------------------------------------------------------------------------------|
 C|---------------------------------------------------------------------------------------------------| x2
 G|---------------------------------------------------------------------------------------------------|
 C|---------------------------------------------------------------------------------------------------| 


Important: The song above is NOT stored on the Chordie server. The original song is hosted at www.azchords.com. Chordie works as a search engine and provides on-the-fly formatting. Chordie does not index songs against artists'/composers' will. To remove this song please click here.

This song is displayed as text-only. Transposing and tuning is only available for chordpro-songs.
Rate #1 of 2 versions

Jango Player

Login - add to songbook

SHARE PAGE  



You need to log in to post comments