Guitar Tabs, Chords and Lyrics
Server problems seems to be fixed. Chordie has been experiencing problems with songs disappearing. These issues now seems to be fixed, but still verifying the fix. If you find anything strange, please email admin@chordie.com.


When Morning Comes  Dishwalla

I love this song, and it's much easier to play
then i first thought! I hope this tab helps you
to play it, but if you wish to use this tab on
a site or claim credit for it, please inform me
before hand. Thanks! Also, there are two guitars
in this song, but i just wrote the main chords and
the important riffs. Email me with any problems or
requests.
INTRO:
 
 ------

[Fm#]  
 
 e|---------------------------|
 B|---------------------------|
 G|---6------4--6h7-6---------|
 D|---------------------------|
 A|---------------------------|
 E|---------------------------|

VERSE:
 
 ------

[Fm#] feel the burn
feel the demons come to mix
fill the street with madness - don't
lay your hands and lesions over me
fall instead where midnight dies
PRE-CHORUS:
 
 -----------

[D] and morning comes
feel it here the silence
CHORUS:
 
 -------

[G] there's so much l[B]ife h[D]ere
[G] and so much p[B]ain - w[D]e forget
[G] there's so much l[B]ife as m[D]orning comes
[G] and its real - the silence
POST-CHORUS:
 
 ------------
 e|----------------------------|
 B|----------------------------|
 G|--4----------7------9-------| PLAY
 D|--x----------x------x-------| x3
 A|--2----------5------7-------|
 E|----------------------------|
 e|----------------------------|
 B|----------------------------|
 G|----------------------------|
 D|--9----------7----6----4----|
 A|--x----------x----x----x----|
 E|--7----------5----4----2----|

VERSE:
 
 ------

[Fm#] see the sun forever falling
let the setback fall through the cracks
keep us safe from ever crawling
let me know a life so sweet
CHORUS:
 
 -------

[G] there's so much l[B]ife h[D]ere
[G] and so much p[B]ain - w[D]e forget
[G] there's so much l[B]ife as m[D]orning comes
[G] and its real - the silence
POST-CHORUS:
 
 ------------
 e|----------------------------|
 B|----------------------------|
 G|--4----------7------9-------| PLAY
 D|--x----------x------x-------| x3
 A|--2----------5------7-------|
 E|----------------------------|
 e|----------------------------|
 B|----------------------------|
 G|----------------------------|
 D|--9----------7----6----4----|
 A|--x----------x----x----x----|
 E|--7----------5----4----2----|

BRIDGE:
 
 -------

[E] say you wanted lo[G]ve
and you want it to f[D]eel
so r[A]eal forever - well
[E] remember why you have com[G]e
and all the *** that's ca[D]ving in is gone[A] forever
SOFT CHORUS:
 
 ------------

[G] there's so much l[B]ife h[D]ere
[G] and so much p[B]ain - w[D]e forget
[G] there's so much l[B]ife as m[D]orning comes
[G] and its real - the silence
FINAL CHORUS:
 
 -------------

[G] [B]and its r[D]eal - the s[G]ilence
[B] and its r[D]eal - the s[G]ilence
there's so much l[B]ife as m[D]orning comes
[G] and its real - the silence
[G] say you wanted to l[B]ive f[D]orever,
[G] say you wanted m[B]ore, f[D]orever well
[G] when will they h[B]elp
when w[D]ill they h[G]elp
and its r[G]eal
CHORDS:
 
 -------

[Fm#] [D] [G] [B] [E]  
 
 e|---2----2----3---------0---|
 B|---2----3----3---------0---|
 G|---2----2----0----4----1---|
 D|---4----0----0----4----2---|
 A|---4---------x----2----2---|
 E|---2---------3---------0---|
 ---------------------------------------------
 ---------------------------------------------


Important: The song above is NOT stored on the Chordie server. The original song is hosted at www.azchords.com. Chordie works as a search engine and provides on-the-fly formatting. Chordie does not index songs against artists'/composers' will. To remove this song please click here.

Text color:
Chord color:
Chord grids: 
Font size:    
Page size: 

A B D E G
Rate #1 of 1 versions

Login - add to songbook

SHARE PAGE  




You need to log in to post comments