Guitar Tabs, Chords and Lyrics
Server problems seems to be fixed. Chordie has been experiencing problems with songs disappearing. These issues now seems to be fixed, but still verifying the fix. If you find anything strange, please email admin@chordie.com.


Jedina moja  Divlje jagode

Intro:
 
 e-----------------------------------------------------------------
 B---------8p10b12-10b12r10----8-10~---------7p8b10--8b10r8----7-8-
 G---7/9-------------------------------7-7-------------------------
 D-----------------------------------------------------------------
 A-----------------------------------------------------------------
 E-----------------------------------------------------------------
 e-----------------------------------------------------------------
 B---------8p10b12-10b12r10----8-10----------10h8-7----7-----------
 G---7/9-------------------------------7-7-----------7---9---------
 D-----------------------------------------------------------------
 A-----------------------------------------------------------------
 E-----------------------------------------------------------------

[Em]Pogledaj u moje [Am]oci
[D]Zasto skrivas pogled [Em]taj
[Em]Pogledaj u moje [Am]lice
[D]I pokazi osmijeh [Am]svoj.
[C]Djevojko u sutonu [Em]tihom
[D]Pokraj rijeke sto ko[Em]racas
[C]S tuznom sjenom na [Em]licu svom
[D]I kosom njeznom i kosom plavom kao [Em]lan.
[Em]Jedina moja tebi [Am]sviram ja
[D]Jedina moja tebi [Em]pjevam ja
[Em]Jedina moja tebi [Am]sviram ja
[D]Jedina moja tebi [Em]pjevam ja.

Important: The song above is NOT stored on the Chordie server. The original song is hosted at www.azchords.com. Chordie works as a search engine and provides on-the-fly formatting. Chordie does not index songs against artists'/composers' will. To remove this song please click here.

Text color:
Chord color:
Chord grids: 
Font size:    
Page size: 

Am C D Em
Rate #1 of 3 versions

Jango Player

Login - add to songbook

SHARE PAGE  




You need to log in to post comments