Guitar Tabs, Chords and Lyrics
Server problems seems to be fixed. Chordie has been experiencing problems with songs disappearing. These issues now seems to be fixed, but still verifying the fix. If you find anything strange, please email admin@chordie.com.


Everytime  Donavon Frankenreiter

Watching the m[E]oon rise and the sun fall [C#m]
[A] te[Abm]ll me there ain't no one [C#m]else at all
i said [F#]ain't no one [B]
 
 ------------------------------------|
 ------------------------------------|
 ------------------------------------| RIFF 1
 ---------2----------2----------2----|
 ---2--4------2--4------2--4---------|
 ------------------------------------| 

[E] who can take my day into [C#m]night
[A] yo[Abm]u still give me all that [C#m]lovin' light
but tha[F#]t's what you do [B]
Refrão -->
[A] everytime [Abm]you walk out that door
[A] i just lov[Abm]e you more
[A] won't [Abm]you just stay here [F#]with me (baby, won't you stay here with me)
[A] everytime [Abm]you walk out that door
[A] i just lov[Abm]e you more
[A] baby, [Abm]won't you stay here[F#] with me
stay here [B]with me
<--
[E] you make me an offer i ca[C#m]n't refuse
[A] you[Abm] make me an offer where [C#m]you won't lose
i said [F#]you won't lose [B]
[E] your heart is a trembling[C#m], mine is too
[A] for you[Abm]r love ain't no deal i w[C#m]ant to lose
i said [F#]no, i don't wa[B]nt to lose
[A] if I let you borrow my to[Abm]morrow, would you j[F#]ust stay with me today?[E]
 
 -----------------------------|
 -------------------5---------|
 ----------------4h6----------| RIFF 2
 -------2h4/6-----------------|
 ---2h4-----------------------|
 -----------------------------| 

[A] if I let you borrow my to[Abm]morrow, would you j[F#]ust stay with me? Stay with me girl? Yeah
 
 ------------------------------------------------------------------------------------------- 

Cifrado por Pedro Gontijo - 21/04/05

Important: The song above is NOT stored on the Chordie server. The original song is hosted at www.azchords.com. Chordie works as a search engine and provides on-the-fly formatting. Chordie does not index songs against artists'/composers' will. To remove this song please click here.

Text color:
Chord color:
Chord grids: 
Font size:    
Page size: 

A Abm B C#m E F#
Rate #1 of 2 versions

Jango Player

Login - add to songbook

SHARE PAGE  




You need to log in to post comments