Guitar Tabs, Chords and Lyrics
Server problems seems to be fixed. Chordie has been experiencing problems with songs disappearing. These issues now seems to be fixed, but still verifying the fix. If you find anything strange, please email admin@chordie.com.


Our Love  Donavon Frankenreiter

[#####################################]  
[#]# Artist: Donavon Frankenreiter [#]#


[#]# Copyright (c) 2004 [#]#
[#####################################]  
Guitar Lick 1:
 
 e------------------|
 b--------------5-8-|
 g------4-7-5-5-----|
 d--5-5-------------|
 a------------------|
 e------------------|

Guitar Solo 1:
 
 e--3/7----3h5h7p3-----------------------------------|
 b-----------------5-3-------------------------------|
 g---------------------4p2p0--------------------4----|
 d------------------------------4/5-7-8-7-5-7-5------|
 a---------------------------------------------------|
 e---------------------------------------------------|
 e----------------------------------------------------------|
 b--------------------------------5----8p5-7----------------|
 g--------------------------4-7-7---------------4-4/7-4-----|
 d-5-5-7-8-7-5-7-5----5-2-0-----------------------------7-5-|
 a----------------------------------------------------------|
 e----------------------------------------------------------|

[G] [C] [C7] [Em] [A7] [D] [G7]  
 
 e---3---3---3---0---0---2---3-|
 b---3---5---5---0---2---3---3-|
 g---4---5---3---0---0---2---4-|
 d---5---5---5---2---2---0---3-|
 a---5---3---3---2---0---x---5-|
 e---3---x---x---0---x---x---3-|

[########################################]  
Guitar 1: G C G C
Guitar 2:
H[G]ang on so[C] good to[G] see you[C] 'round
N[G]ever thought I'd[C] see ya s[Em]aid ya can't be found
L[G]et's get tog[C]ether
L[G]et's drop dow[C]n to the void
L[G]ets get tog[C]ether and [Em]roll that joy
Please don't for[A7]get what I said
Please don't for[C(7)]get what I said
Can't wait to show you
[G]My love,[C] y[G]our love,[C] [G]my love, o[C]ur love[G] [C]
[G]Role down the wi[C]ndow, the w[G]orld's out th[C]ere
A[G]nd the glow[C]ing sky, I [Em]can't help but stare
[G]Staring out, as[C] far as I c[G]ould s[C]ee
[G]There was a sta[C]r staring b[Em]ack at me
I won't fo[A7]rget what you said
I won't for[C(7)]get what you said
Why can't you show me
[G]Your lov[C]e, [G]my love, [C] y[G]our love, [C]our love[D]
Baby sometimes we [Em]want, sometimes we ne[G7]ed
You make me wanna [Em]stay, but then you say you gotta le[G7]ave
Who[C] knows what you find, but in the me[D]antime,
I'm just here to show you
[G]My love,[C] y[G]our love,[C] [G]my love, o[C]ur love[G] [C]
[G]Hang on w[C]here are you[G] going to n[C]ow?
[G].....[C]..lonenly[Em] Let me show you how,
[G]Let's get tog[C]ether one mo[G]re time bef[C]ore you go
[G]Let's get tog[C]ether and the[Em]n, then you'll know
That I me[A7]ant what I said
Please don't fo[C(7)]rget what I said
Can't wait to show you
[G]My love,[C] y[G]our love,[C] [G]my love, o[C]ur love[D]

Important: The song above is NOT stored on the Chordie server. The original song is hosted at www.azchords.com. Chordie works as a search engine and provides on-the-fly formatting. Chordie does not index songs against artists'/composers' will. To remove this song please click here.

Text color:
Chord color:
Chord grids: 
Font size:    
Page size: 

A7 C C(7) C7 D Em G G7
Rate #1 of 2 versions

Jango Player

Login - add to songbook

SHARE PAGE  




You need to log in to post comments