Guitar Tabs, Chords and Lyrics
Server problems seems to be fixed. Chordie has been experiencing problems with songs disappearing. These issues now seems to be fixed, but still verifying the fix. If you find anything strange, please email admin@chordie.com.


What'cha Know About  Donavon Frankenreiter

[#####################################]  
[#]# Artist: Donavon Frankenreiter [#]#


[#]# Copyright (c) 2004 [#]#
[#####################################]  
Guitar Lick 1:
 
 e------------|
 b--5-3-------|
 g------4p2-0-|
 d------------|
 a------------|
 e------------|

Guitar Lick 2: (Mouthorgan replacer)
 
 e--------------|
 b--6-6-6-6-6-8-|
 g--------------|
 d--------------|
 a--------------|
 e--------------|

Guitar Lick 3: (Mouthorgan replacer)
 
 e--10-10-10-10-8------|
 b----------------11-8-|
 g---------------------|
 d---------------------|
 a---------------------|
 e---------------------|

C*: You can play a C7 or a C9 or a Cadd9
[C7] [Cadd9] [C9] [G] [Gsus4] [Em] [F#]  
 
 e--3-----3----x---3----3----0---2-|
 b--5-----3----3---3----3----0---2-|
 g--3-----0----3---4----5----0---3-|
 d--5-----2----2---5----5----2---4-|
 a--3-----3----3---5----5----2---4-|
 e--x-----x----x---3----3----0---2-|

[########################################]  
C*
What'cha know about love
Said our love would be[G] [(Gsus4] [G)]
C*
You said you were my girlfriend
Some girl you turned out to [G]be[(Gsus4] [G)]
C*
I guess you know about leaving
Loving and leaving [G]me[(Gsus4] [G)]
C*
You left me for no reason
But you left me to be[G]li[(Gsus4)]eve
S[Em]ometimes your l[F#]ife people can c[G]rumble
S[Em]ometimes your s[F#]oul might make y[G]ou stumble
B[Em]ut you can't dr[F#]own in your sorr[G]ow
C[Em]ause you might be found you m[F#]ight be found tomo[G]rrow
C*
What'cha know about living
When you're treated like a q[G]ue[(Gsus4]en[G)]
C*
But the queen don't know about giving
I ain't looking to her se[G]at[(Gsus4)]
S[Em]ometimes your l[F#]ife people can c[G]rumble
S[Em]ometimes your s[F#]oul might make y[G]ou stumble
B[Em]ut you can't dr[F#]own in your sorr[G]ow
C[Em]ause you might be found you m[F#]ight be found tomo[G]rrow

Important: The song above is NOT stored on the Chordie server. The original song is hosted at www.azchords.com. Chordie works as a search engine and provides on-the-fly formatting. Chordie does not index songs against artists'/composers' will. To remove this song please click here.

Text color:
Chord color:
Chord grids: 
Font size:    
Page size: 

C7 C9 Cadd9 Em F# G Gsus4
Rate #1 of 3 versions

Login - add to songbook

SHARE PAGE  



You need to log in to post comments