Guitar Tabs, Chords and Lyrics
Server problems seems to be fixed. Chordie has been experiencing problems with songs disappearing. These issues now seems to be fixed, but still verifying the fix. If you find anything strange, please email admin@chordie.com.


Changes  Donovan

INTRO:
[C] [Cmaj9/E] [Am] [C] [F] [G] [F] [C] 
 
 E -------
 B -------
 G -------
 D -------

A ---0-2-
 
 E -3-----

VERSES:
E[C]veryone is [Cmaj9/E]right
[Am]Everything is wr[Em]ong
D[F]on't let the ch[G]anges get y[F]ou down, m[C]an
E[C]veryone is wr[G]ong
Everyth[Am]ing is all right n[C]ow
D[F]on't let the ch[G]anges get y[F]ou upt[C]ight.
PRE-CHORUS:
Butter your to[F]ast and let's go
Button up my c[C]oat and I'm gonna go
Off to the c[F]oast we must go
Don't wanna bo[C]ast, but I'll g[Am]row much better th[G]ere
CHORUS:
D[F]on't let the ch[G]anges a g[F]et you down m[C]an
D[F]on't let the ch[G]anges a g[F]et you down m[C]an
D[F]on't let the ch[G]anges a g[F]et you down m[C]an
D[F]on't let the ch[G]anges a g[F]et you down m[C]an
VERSE:
V[C]ietnam, [Cmaj9/E]Biafra
The ob[Am]surdity of g[Em]reed
H[F]ow much can o[G]ne man p[F]ossibly n[C]eed?
S[C]ickness and dise[G]ase
And ignor[Am]ance on every s[C]ide
D[F]on't let the ch[G]anges g[F]et you tight.[C]
PRE-CHORUS:
B[C]utter your to[F]ast and let's go
Button up my c[C]oat and I'm gonna go
Off to the c[F]oast we must go
Don't wanna bo[C]ast, but I'll g[Am]row much better th[G]ere
CHORUS:
D[F]on't let the ch[G]anges a g[F]et you down m[C]an
D[F]on't let the ch[G]anges a g[F]et you down m[C]an
D[F]on't let the ch[G]anges a g[F]et you down m[C]an
D[F]on't let the ch[G]anges a g[F]et you down m[C]an
INSTRUMENTAL:
GUITAR 1:
[C] [Cmaj9/E] [Am] [C] [F] [G] [C] [G]  
[C] [Cmaj9/E] [Am] [C] [F] [G] [F] [C]  
GUITAR 2:
SOLO:
 
 E -----------------------------------------------------------------------
 B -----------------------------------------------------------------------
 G -----------------------------------------------------------------------
 D ------------------------------------2--------3-2-3-2-0-0--------0-2-0--
 A ---0-2--3-3-5-3---2-2-3-2---0-0-3-5---0-3-5--------------3-2-3-3-------
 E -3---------------------------------------------------------------------
 E -----------------------------------------------------------------------
 B -----------------------------------------------------------------------
 G -----------------------------------------------------------------------
 D ------------------------------------2--------3-2-3-2-0-0---------------
 A ---0-2--3-3-5-3---2-2-3-2---0-0-3-5---0-3-5--------------3-2-3---------
 E -3---------------------------------------------------------------------

PRE-CHORUS:
B[C]utter my to[F]ast and let's go
Button up my c[C]oat and we're gonna go
Off to the c[F]oast we must go
Don't wanna bo[C]ast, but I'll g[Am]row much better th[G]ere
CHORUS:
D[F]on't let the ch[G]anges a g[F]et you down m[C]an
D[F]on't let the ch[G]anges a g[F]et you down m[C]an
D[F]on't let the ch[G]anges a g[F]et you down m[C]an
D[F]on't let the ch[G]anges a g[F]et you down m[C]an
D[F]on't let the ch[G]anges a g[F]et you down m[C]an
D[F]on't let the ch[G]anges a g[F]et you down m[C]an
D[F]on't let the ch[G]anges a g[F]et you down m[C]an
OUTRO:
[F] [G] [G] [C]  
 
 E ----------------7-7-8--
 B ---------8-6-----------
 G --10-9-7-----9---------
 D -----------------------
 A -----------------------
 E ----------------------- 


Important: The song above is NOT stored on the Chordie server. The original song is hosted at www.azchords.com. Chordie works as a search engine and provides on-the-fly formatting. Chordie does not index songs against artists'/composers' will. To remove this song please click here.

Text color:
Chord color:
Chord grids: 
Font size:    
Page size: 

Am C Em F G
Rate #1 of 1 versions

Jango Player

Login - add to songbook

SHARE PAGE  



You need to log in to post comments