Guitar Tabs, Chords and Lyrics
Server problems seems to be fixed. Chordie has been experiencing problems with songs disappearing. These issues now seems to be fixed, but still verifying the fix. If you find anything strange, please email admin@chordie.com.


Jersey Thursday  Donovan

*all chords and notes are relative to the capo.
Chords:
Asus2: 002200
Am: 002210
G: 320003
Em: 022000
Intro:
 
 ------ x2 x2 x2 x3
 E||--8-8---8-8-8-8--|--8-8---8-8-8-8--|--8-8---8-8-8-8--|--8-8---8-8-8-8--|
 B||--8-8---8-8-8-8--|--7-7---7-7-7-7--|--6-6---6-6-6-6--|--5-5---5-5-5-5--|
 G||-----------------|-----------------|-----------------|-----------------|
 D||-----------------|-----------------|-----------------|-----------------|
 A||-----------------|-----------------|-----------------|-----------------|
 E||-----------------|-----------------|-----------------|-----------------|
 x4 <-------Play each measure the corresponding amount of times

before moving to the next measure.
 
 |--7-7---7-7-7-7--|
 |--5-5---5-5-5-5--|
 |-----------------|
 |-----------------|
 |-----------------|
 |-----------------|

Verse:
 
 ------

In the[Asus2] tiny piece of c[G]oloured glass
my love was b[Am]orn
and reds and golds and ye[G]llow
were the colours in the d[Asus2]awn
Night brought on its pur-[G]ple cloak
of [G]velvet [D/F#]to the s[Em]ky
and the gi[Am]rls go willing
sp[G]inning, on Jersey [Asus2]Thursday
Bridge: strum
 
 -------
 E||--5---3---1---0-0-----|
 B||--x---x---x---x-x-----|
 G||--5---4---2---0-0-----|
 D||----------------------|
 A||----------------------|
 E||----------------------|

Pre-verse:
 
 ----------

[Am] [Asus2]  
Verse:
 
 ------

In the[Asus2] tiny piece of c[G]oloured glass
my love was b[Am]orn
and reds and golds and ye[G]llow
were the colours in the d[Asus2]awn
Night brought on its pur-[G]ple cloak
of [G]velvet [D/F#]to the s[Em]ky
and the gi[Am]rls go willing
sp[G]inning, on Jersey [Asus2]Thursday
Outro:
 
 ------
 E||--5--5-5-5--7--|--5-3-5-7--5--|--7-3-5-5-3--|--3-0-0-3-5-5-|--5-7-8--7h8\5--|
 B||---------------|--------------|-------------|--------------|----------------|
 G||---------------|--------------|-------------|--------------|----------------|
 D||---------------|--------------|-------------|--------------|----------------|
 A||---------------|--------------|-------------|--------------|----------------|
 E||---------------|--------------|-------------|--------------|----------------|

fade...
 
 |--3--7-7--5---|--5-5-5--5--5-|--5-5-5----|
 |--------------|--------------|-----------|
 |--------------|--------------|-----------|
 |--------------|--------------|-----------|
 |--------------|--------------|-----------|
 |--------------|--------------|-----------|


Important: The song above is NOT stored on the Chordie server. The original song is hosted at www.azchords.com. Chordie works as a search engine and provides on-the-fly formatting. Chordie does not index songs against artists'/composers' will. To remove this song please click here.

Text color:
Chord color:
Chord grids: 
Font size:    
Page size: 

Am Asus2 D/F# Em G
Rate #1 of 5 versions

Login - add to songbook

SHARE PAGE  




You need to log in to post comments