Guitar Tabs, Chords and Lyrics
Major upgrade!! After one year development the new version of Chordie is now online! Please give feedback.


I Believe in You  Don Williams

 
 e---------------------------------------|
 B---------------------------------------|
 G---------------------------------------|
 D--------------------5h7-5--------------|
 A--------------5--7---------------------|
 E------3---5/7--------------8-----------|
 e----------------------------------------|
 B----------------------------------------|
 G-------------------5/7---7--------------|
 D----------5-5h7----7/9---9--------------|
 A----5--7--------------------------------|
 E----------------------------------------|
 e---14--14--14--12--12--12--10--10--10----|
 B-----------------------------------------|
 G-14--14--14--12--12--12--11--11--11------|
 D-----------------------------------------|
 A-----------------------------------------|
 E-----------------------------------------|
 e---8--8--8--7/8\8--8---------------------|
 B----------------------8------------------|
 G--9--9--9---8/9--------------------------|
 D----------------------9------------------|
 A-----------------------------------------|
 E-----------------------------------------|

IF YOU WANT TO PLAY THE BASS LINE THEN YOU'LL WANT TO TUNE TO DROP C
 
 e-----------------------------------------|
 B-----------------------------------------|
 G-----------------------------------------|
 D-----------------------------------------|
 A-----------------------------------------|
 C----3---3-3h5---3--0---------------------|

YOU GET THE IDEA. OR IF YOU CAN FIGURE OUT A STRUMMING PATTERN THE CHORDS ARE.....
G 320003
C X32010
D/C XX0212
[G]I DON'T BELIEVE IN SUPERSTARS, ORGANIC FOOD OR FOREIGN CARS
I DON'T BELIEVE THE PRICE OF GOLD, THE CERTAINTY OF GROWING OLD
THAT RIGHT IS [D/C]RIGHT AND LEFT IS WRONG, THAT NORTH AND SOUTH CAN'T GET ALONG
THAT EAST IS E[G]AST AND WEST IS WEST, AND BEING FIRST IS ALWAYS BEST
BUT I BEL[C]IEVE IN LOVE, I BE[G]LIEVE IN BABIES
I BELIEVE [D/C]IN MOM AND DAD, AND I BELIEVE IN YO[G]U
I D[G]ON'T BELIEVE THAT HEAVEN WAITS FOR ONLY THOSE WHO CONGREGATE
I LIKE TO THINK OF GOD AS LOVE, HE'S DOWN BELOW, HE'S UP ABOVE
HE'S W[D/C]ATCHING PEOPLE EVERYWHERE, HE KNOWS WHO DOES AND DOESN'T CARE
AND [G]I'M AN ORDINARY MAN, SOMETIMES I WONDER WHO I AM
BUT I BELI[C]EVE IN LOVE, I BEL[G]IEVE IN MUSIC
I BELIEVE [D/C]IN MAGIC, AND I BELIEVE IN Y[G]OU
[G]WELL, I KNOW WIT[C]H ALL MY CERTAINTY WHAT'S GOING ON WITH YOU AND ME
IS A [G]GOOD THING. IT'S T[D/C]RUE, I BELIEVE IN YO[G]U
[G]I DON'T BELIEVE VIRGINITY IS AS COMMON AS IT USED TO BE
IN WORKING DAYS AND SLEEPING NIGHTS, THAT BLACK IS BLACK AND WHITE IS WHITE
THAT SUPERMAN AN[D/C]D ROBIN HOOD ARE STILL ALIVE IN HOLLYWOOD
THAT GASOLINE'S [G]IN SHORT SUPPLY, THE RISING COST OF GETTING BY
BUT I BEL[C]IEVE IN LOVE, I BEL[G]IEVE IN OLD FOLKS
I BELIEVE [D/C]IN CHILDREN, AND I BELIEVE IN Y[G]OU
BUT I BEL[C]IEVE IN LOVE, I BEL[G]IEVE IN BABIES
I BELIEVE [D/C]IN MOM AND DAD, AND I BELIEVE IN Y[G]OU

Important: The song above is NOT stored on the Chordie server. The original song is hosted at www.azchords.com. Chordie works as a search engine and provides on-the-fly formatting. Chordie does not index songs against artists'/composers' will. To remove this song please click here.

Text color:
Chord color:
Chord grids: 
Font size:    
Page size: 

C D/C G
Rate #1 of 6 versions

Login - add to songbook

SHARE PAGE  




You need to log in to post comments