Guitar Tabs, Chords and Lyrics
Major upgrade!! After one year development the new version of Chordie is now online! Please give feedback.


Walk Away  Dropkick Murphys

*= mute chord
~= ring out chord
Intro:
B*,F#*,A*
Fill:
 
 e------------------|
 B--0--0-0--0--0-0--|
 G--4/-8-6--6-/8-4--|
 D------------------|
 A------------------|
 E------------------|

Verse 1:
B* F#
So you say you fell in love, and you're gonna get married
E* F#* B*
Raise yourself a family, how simple life can be
B* F#*
Somewhere it all went wrong, and your plans just fell apart
E* F# B
And you ain't got the heart to finish what you started
Riff 1:
 
 e------------------------------------------------------------|
 B--0-0-0-0-0-0-0-0-0-0-0-0-0-0--0-0-0-0-0-0-0-0-0-0-0-0-0-0--|
 G--4-4-3-3-4-4-3-3-4-4-3-3-4-6--6-6-4-4-6-6-4-4-6-6-4-4-6-8--|
 D------------------------------------------------------------|
 A------------------------------------------------------------|
 E------------------------------------------------------------|

Fill
 
 e---------------------|-----------------|
 B--0-0-0-0-0-0-0-0-0--|-0--0-0--0--0-0--|
 G--9-9-8-8-9-9-8-8-9\-|-4/-8-6--6-/8-4--|
 D---------------------|-----------------|
 A---------------------|-----------------|
 E---------------------|-----------------|

Verse 2:
B* F#
Yeah, you fell in love, and you went and got married
E* F#* B*
Had yourself a family, how simple life can be
Somewhere it all went [F#]wrong, and your plans just [B]fell apart
And you ain't [E]got the heart to [F#]finish what you [B]started
C#~,B~,
F#,B,C#,C#
Chorus: x2
The ones that you [C#]loved,
The ones that you [B]left behind,
The ones you said you'd [F#]try to find,
Are they trying to [C#]find you?
Riff 1 x1
Verse 3:
Somewhere it all went [F#]wrong, and your plans just [B]fell apart
And you ain't [E]got the heart to [F#]finish what you [B]started
B* F#*
You walked out that door to find out where you belong
E* F#* B
To fulfill your own selfish dreams, I think you might have forgotten
Chorus x2
B,F#,C#
Solo Fill 1:
 
 e-------------------------|
 B--------9-9-9-9-9-9-9-9--|
 G--6-6-8------------------|
 D-------------------------|
 A-------------------------|
 E-------------------------|

Solo Fill 2: (For last chorus, don't come in until "...try to find")
 
 e--15b17-15b17-15b17-15b17-15b17--|
 B---------------------------------|
 G---------------------------------|
 D---------------------------------|
 A---------------------------------|
 E---------------------------------|

Chorus x1

Important: The song above is NOT stored on the Chordie server. The original song is hosted at www.azchords.com. Chordie works as a search engine and provides on-the-fly formatting. Chordie does not index songs against artists'/composers' will. To remove this song please click here.

Text color:
Chord color:
Chord grids: 
Font size:    
Page size: 

B C# E F#
Rate #1 of 2 versions

Jango Player

Login - add to songbook

SHARE PAGE  




You need to log in to post comments