Guitar Tabs, Chords and Lyrics
Server problems seems to be fixed. Chordie has been experiencing problems with songs disappearing. These issues now seems to be fixed, but still verifying the fix. If you find anything strange, please email admin@chordie.com.


Alive   Drugstore

 


 


 


 Drugstore : Alive


 


 (Lyrics Included)


 


 This is Alive from Drugstore. The chords are easy and basic, but the rythm


 is just another thing... I tried to write it down as obvious as I could,


 but it's not the exact thing he (Daron) plays...but it's close :-)


 Listen to the number and try some variations...


 


 Basic Chord Progression:


 


 / \


 || C | C | F~7 | G7 ||


 \ /


 


 On the chorus play a basic G-chord ('Alive...').


 


 

 
 |--0--------0------|
 |--0-h-1----1------| <--- Play this on C
 |--0--------0--0---| ('h' means hammer on)
 |--2--------2------|
 |--3--------3------|
 |------------------|
 |--0--------0------|
 |--0-h-1----1--1---| <--- Play this on F~7
 |--2--------2------|
 |--3--------3------|
 |------------------|
 |------------------|
 |-----------1------|
 |--0---------------| <--- Play this on G7
 |--0---0-----------|
 |--0---------------|
 |--2---------------|
 |--3---------------|

 


 


 Lyrics (my best guess):


 

 
 -----------------------

 


 


 =====


 


 I feel the time is coming


 I walk into the night


 I don't mind if the clock is turning


 I'm going to the other side


 


 You either die or you keep on burning alive


 And I am burning


 


 I walked along long distance


 I'm feeling sore inside


 I don't care if the sky is falling


 I never get to see the light


 


 You either die or you keep on burning alive


 And I'm burning


 And I am burning


 


 [---]  


 [---]  


 Everything is welcome! (...well, almost everything :-))


 


 Greetings,


 Ellen!


 


 


 via MS.5.6.studs2.sci.kun.nl.sun4_41;


 Fri, 15 Dec 1995 21:02:25 +0100 (MET)


 X-Andrew-Message-Size: 1642+0


 Status: O


 


 (NEW: Lyrics Included!)


 


 Drugstore : Alive


 


 This is Alive from Drugstore. The chords are easy and basic, but the rythm


 is just another thing... I tried to write it down as obvious as I could,


 but it's not the exact thing he (Daron) plays...but it's close :-)


 Listen to the number and try some variations...


 


 Basic Chord Progression:


 


 / \


 || C | C | F~7 | G7 ||


 \ /


 


 On the chorus play a basic G-chord ('Alive...').


 


 

 
 |--0--------0------|
 |--0-h-1----1------| <--- Play this on C
 |--0--------0--0---| ('h' means hammer on)
 |--2--------2------|
 |--3--------3------|
 |------------------|
 |--0--------0------|
 |--0-h-1----1--1---| <--- Play this on F~7
 |--2--------2------|
 |--3--------3------|
 |------------------|
 |------------------|
 |-----------1------|
 |--0---------------| <--- Play this on G7
 |--0---0-----------|
 |--0---------------|
 |--2---------------|
 |--3---------------|

 


 


 Lyrics (my best guess):


 

 
 -----------------------


Important: The song above is NOT stored on the Chordie server. The original song is hosted at www.azchords.com. Chordie works as a search engine and provides on-the-fly formatting. Chordie does not index songs against artists'/composers' will. To remove this song please click here.

This song is displayed as text-only. Transposing and tuning is only available for chordpro-songs.
Rate #1 of 4 versions

Jango Player

Login - add to songbook

SHARE PAGE  



You need to log in to post comments