Guitar Tabs, Chords and Lyrics
Server problems seems to be fixed. Chordie has been experiencing problems with songs disappearing. These issues now seems to be fixed, but still verifying the fix. If you find anything strange, please email admin@chordie.com.


Bury Me  Dwight Yoakam

Dwight Yoakam - Bury Me (tab)
A = x02220 D = xx0232
E7 = 020100 D7 = xx0212
**************************************************************************************
[A]INTR[D]O[E7] [A]
[A]Bury me a[D]long the big san[D7]dy,
[A]Down in those blue, gray [E7]mountains.
[A]Rest my soul in those [D]hills of coal,
Un[A]til this old [E]earth does [A]tremble.
Don't you [D]mourn for me when my [A]soul is free,
No [D]woman, don't you [E]cry.
You just [A]bury me a[D]long the big sandy,
[A]Under a [E7]blue Kentucky [A]sky.
This old town of sin, its a[D]bout to do me in,
I don't [A]know how much I can [E7]stand.
With my [A]knees on the street and my [D]heart at their feet,
I'm [A]forced to [E]beg from Satan's [A]hand.
So bury me a[D]long the big san[D7]dy,
[A]Down in those blue, gray [E7]mountains.
[A]Rest my soul in those [D]hills of coal,
Un[A]til this old [E]earth does [A]tremble.
Don't you [D]mourn for me when my [A]soul is free,
No [D]woman, don't you [E]cry.
You just [A]bury me a[D]long the big sandy,
[A]Under a [E]blue Kentucky [A]sky.
[A]INS[D]TRU[A]MEN[E]TAL[A] [D] [A] [E] [A] [D7] [A] [D] [E] [A] [D] [A] [E] [A]
When I came to this land, I was [D]strong and I could stand,
Oh, but [A]now I've somehow gone a[E]stray.
Yet I [A]still see the truth in the [D]teaching of my youth,
And I [A]know that the [E]Lord ain't turned a[A]way.
[A]Bury me a[D]long the big san[D7]dy,
[A]Down in those blue, gray [E7]mountains.
[A]Rest my soul in those [D]hills of coal,
Un[A]til this old [E]earth does [A]tremble.
Don't you [D]mourn for me when my [A]soul is free,
No [D]woman, don't you [E]cry.
You just [A]bury me a[D]long the big sandy,
[A]Under a [E7]blue Kentucky [A]sky.
[A]Under a [E7]blue Kentucky [A]sky.
[A]Under a [E7]blue Kentucky [A]sky.
**************************************************************************************
p = pulloff \ = slide down
/ = slide up h = hammer-on
b = bend pbr = pre-bend & release
**************************************************************************************
INTRO
[A] [D] [E7] [A] 
 
 E---12--10p9--9--------------------0-------------------------|
 B-----10----12-------10-8p7-7-------2-------0----------------|
 G--9-----------9\4-----7---9-7\2---------0h1-1---2-----2-2---|
 D-----------------5/7-----------1/2--4\2-0----2/4-2h4/5-2----|
 A------------------------------------------------------------|
 E------------------------------------------------------------|

VARIATION ON INTRO WHICH IS PLAYED OVER THE LAST LINES OF EACH CHORUS
[A] [D] [E7] [A] 
 
 E---0-------------------------0-------------------------|
 B-----3p2-0-2---10-8p7-7-------2-------0----------------|
 G----2------------7---9-7\2---------0h1-1---2-----2-2---|
 D------------2/7-----------1/2--4\2-0----2/4-2h4/5-2----|
 A--0----------------------------------------------------|
 E-------------------------------------------------------|

SLIDE SOLO (Arranged for standard guitar)
[A] [D] [A] [E] 
 
 E--0-0-0-0----0---0---------0-0-0-----------0---0---0-0--------
 B--2-3-4-4/5--5\3----------------------------------------------
 G-----------------5\4-2-0---2-4-2-------2-4-4/6-6\4-2-4--------
 D------------------------4p2-----2h4--2-----------------5\4-2--
 A--------------------------------------------------------------
 E--------------------------------------------------------------

[A] [D] [A] [E] [A] 
 
 E--0-0-0---0------0-------2-5-5-2-0-0---0----3----------------------------------|
 B--2-3-3/5-5\3-1b--------3--------5-------3/5-5\3-------------------------------|
 G-----------------2-0---------------5\4-2---------4pbr-4pbr-2-------------------|
 D---------------------2/4------------------------------------4pbr-2-------------|
 A------------------------------------------------------------------2/3\2/4------|
 E-------------------------------------------------------------------------------|


Important: The song above is NOT stored on the Chordie server. The original song is hosted at www.azchords.com. Chordie works as a search engine and provides on-the-fly formatting. Chordie does not index songs against artists'/composers' will. To remove this song please click here.

Text color:
Chord color:
Chord grids: 
Font size:    
Page size: 

A D D7 E E7
Rate #1 of 5 versions

Jango Player

Login - add to songbook

SHARE PAGE  




You need to log in to post comments