Guitar Tabs, Chords and Lyrics
Server problems seems to be fixed. Chordie has been experiencing problems with songs disappearing. These issues now seems to be fixed, but still verifying the fix. If you find anything strange, please email admin@chordie.com.


I Got You  Dwight Yoakam

Dwight Yoakam - I Got You (tab)
F# = 244322 A = x02220
E = 022100 B = x24442
****************************************************************************************
[F#]INTRO[A] [E]
I've had to buy back damn near everything I own,
[A]  
And has a lot of money to [E]loan.
I drive a beat up '67 Chevrolet, hey hey,
With a [A]torn up seat that pokes a brand new hole
In my back near every [E]day.
I got a letter from the folks over at Bell,
Just to [A]let me know my next phonecall
I can walk outside and [E]yell.
Hey, [F#]I know my life seems a mess,
But honey, things to me still look real [B]swell.
(FILL 1) (FILL 2)
'Cause I've got [E]you, to see me through,
(FILL 3) (FILL 4)
Yeah, I've got [A]you, oh to chase my [E]blues.
(FILL 1) (FILL 2)
I've got you to ease my pain,
(FILL 3) (FILL 5)
Yeah, I've got [A]you, girl to keep me [E]sane.
(FILL 6)
So [F#]let 'em do what they wanna do,
'Cause [A]it don't matter long as I've got [E]you.
[E]INST[A]RUME[E]NTAL[F#] [A] [E]
I've got the landlord breathin' down my neck for rent,
Oh, but [A]he don't give a damn about my kids
Or where the money was [E]spent.
And after all those years of payin' union dues,
It [A]sure didn't seem to count for much
When we got our layoff [E]news.
I got a note from the man over at the bank,
Said the [A]next 10 gallons of gas I buy
Won't be goin' in my [E]tank.
Hey, [F#]I know I might seem near dead,
But honey, I think I might just get [B]well.
(FILL 1) (FILL 2)
'Cause I've got [E]you, to see me through,
(FILL 3) (FILL 4)
Yeah, I've got [A]you, oh to chase my [E]blues.
(FILL 1) (FILL 2)
I've got you to ease my pain,
(FILL 3) (FILL 4)
Honey, I've got [A]you, girl to keep me [E]sane.
(FILL 6)
So [F#]let 'em do what they wanna do,
(FILL 5)
'Cause [A]it don't matter long as I've got [E]you.
(FILL 6)
Yeah, [F#]let 'em go right ahead and sue,
A E (FILL 7)
'Cause it don't matter long as I've got you.
****************************************************************************************
h = hammer-on p = pulloff
b = bend pbr = pre-bend & release
/ = slide up \ = slide down
bh = bend & hold r = release bend
br = bend & release
****************************************************************************************
INTRO
[F#] [A] [E] 
 
 E--------------------------------------------------4--4---------|
 B--------------------------------------------------3b-3-0-------|
 G---------2h3-4---2h3-4-2---2--2p0-----------------------0h1----|
 D---2-3-4-2h4-4-4-2h4-4--4--------4p2p0---------2-----------2---|
 A--4-----------------------0-----------0-0-0-0------------------|
 E---------------------------------------------3b----------------|

FILL 1 FILL 2
 
 E--7---------| E-------------|
 B---7pbr-5---| B-----5\4-3---|
 G------------| G-------------|
 D------------| D--4/6-\5-4---|
 A------------| A-------------|
 E------------| E-------------|

FILL 3 FILL 4
 
 E-----5\4-3---| E--0-0---|
 B-------------| B---3----|
 G--4/6-\5-4---| G--------|
 D-------------| D--------|
 A-------------| A--------|
 E-------------| E--------|

FILL 5 FILL 6
 
 E--0-0--0-----| E--------------------|
 B---3----0----| B--------------------|
 G---------1---| G--2h3-4--2h3-4-2----|
 D-------------| D--2h4-4--2h4-4--4---|
 A-------------| A--------------------|
 E-------------| E--------------------|

FILL 7
 
 E------------------|
 B------------------|
 G--0---------------|
 D---4-2----2-------|
 A-------2/4--------|
 E-----------3b-0---|

LEAD SOLO
[E] [A] [E] 
gradual release
 
 E--7----7-------4--------------------9\7--5------------------------------
 B--7pbr--7b-5-3--3pbr--5bh-5r-5r-------------------------7---------------
 G------------4--------------------7/9-\7-6----------------7bh-7r-4-0h1---
 D-------------------------------------------9pbr-7---7-9b-------------2--
 A-------------------------------------------------9-7--------------------
 E------------------------------------------------------------------------

[F#] [A] [E] 
 
 E----------2-4-4b------7-6-5-----------------------------------------7-------------|
 B-----2-3-4------4----5-----7brbr-p5-8-5-----8-9-10p9-10p9-10br-p9-10-8b-8b--------|
 G--1/3-------------4/6------------------7/9-9------------------------------9-7-9---|
 D---------------------------------------------------------------------------9------|
 A----------------------------------------------------------------------------------|
 E----------------------------------------------------------------------------------|


Important: The song above is NOT stored on the Chordie server. The original song is hosted at www.azchords.com. Chordie works as a search engine and provides on-the-fly formatting. Chordie does not index songs against artists'/composers' will. To remove this song please click here.

Text color:
Chord color:
Chord grids: 
Font size:    
Page size: 

A B E F#
Rate #1 of 1 versions

Jango Player

Login - add to songbook

SHARE PAGE  




You need to log in to post comments