Guitar Tabs, Chords and Lyrics
Server problems seems to be fixed. Chordie has been experiencing problems with songs disappearing. These issues now seems to be fixed, but still verifying the fix. If you find anything strange, please email admin@chordie.com.


Send Me the Pillow  Dwight Yoakam

Dwight Yoakam - Send Me The Pillow (tab)
A7 = x02020 D = xx0232
G = 320003 D7 = xx0212
D/F# = 2x0232
***************************************************************************
[A7]INTRO[D]
[D]Send me the [G]pillow that you [D]dream on,
[A]Don't you know that I still care for [D]you.
Send me the [G]pillow that you [D]dream on,
So [A]darlin' I can dream on it [D]too.[D7]
Each [G]night while I'm sleeping, oh so [D]lonely,
[A]I'll share your love and dreams that once were [D]true.[G] [D/F#] [A]
[D]Send me the [G]pillow that you [D]dream on,
So [A]darlin' I can dream on it [D]too.
[D]INST[G]RUME[D]NTAL[A] [D]
Send me the [G]pillow that you [D]dream on,
[A]Maybe time will let our dreams come [D]true.
Send me the [G]pillow that you [D]dream on,
So [A]darlin' I can dream on it [D]too[D7].
I've [G]waited so long for you to [D]write me,
But [A]just a memory is all that's left of [D]you.[G] [D/F#] [A]
[D]Send me the [G]pillow that you [D]dream on,
So [A]darlin' I can dream on it [D]too.
So [A]darlin' I can dream on it [D]too.[A] [D]
***************************************************************************
\ = slide down / = slide up
br = bend & release x = dead note
h = hammer-on p = pulloff
***************************************************************************
INTRO
[A7] [D]  
 
 E--3-5-7--9\-3-------------------0-------------|
 B---5-7-8-8\-5--5-7-7/8-7-5---8-7----0---------|
 G--------------------------7------7\6--0-------|
 D-------------------------------------7-4------|
 A----------------------------------------7\5---|
 E----------------------------------------------|

LEAD SOLO
[A] [D] [G] [D] [A] 
 
 E----------14\9-9--10/12\7-7-7-7-9-9br-------------------
 B--14-15-17---------------------------7--5-7-8-9-10\7-5--
 G--------------------------------------------------------
 D--------------------------------------------------------
 A--------------------------------------------------------
 E--------------------------------------------------------

[D]  
rake
 
 E--------------12-10--9h10h11-12p11p10p9-----|
 B--5-7-7/8-7--x------------------------------|
 G------------x--------------------------11---|
 D-----------x--------------------------------|
 A--------------------------------------------|
 E--------------------------------------------|

ENDING
[D] [A] [D]  
 
 E-----0-------------|
 B--8-7----0---------|
 G------7\6--0-------|
 D----------7-4------|
 A-------------7\5---|
 E-------------------|


Important: The song above is NOT stored on the Chordie server. The original song is hosted at www.azchords.com. Chordie works as a search engine and provides on-the-fly formatting. Chordie does not index songs against artists'/composers' will. To remove this song please click here.

Text color:
Chord color:
Chord grids: 
Font size:    
Page size: 

A A7 D D/F# D7 G
Rate #1 of 1 versions

Login - add to songbook

SHARE PAGE  



You need to log in to post comments