Guitar Tabs, Chords and Lyrics
Server problems seems to be fixed. Chordie has been experiencing problems with songs disappearing. These issues now seems to be fixed, but still verifying the fix. If you find anything strange, please email admin@chordie.com.


This Time  Dwight Yoakam

Dwight Yoakam - This Time (tab)
E7 = 022130 A = x02220
D = xx0232 A7 = x02223
*************************************************************************************
[E7]INTRO[A]
This time, is the last time,
That I'll ever call her name.
Yeah, this [D]time, is the last time,
That I'll ever play her game.
[A]This time, is the last time,
That I'll endure this pain.
'Cause[E] this time, is the last time,
She'll ever hurt me a[A]gain.
I tell myself each [E]morning that we're [A]through.
But every night I [E]see that's its not [A]true.
[D] I run out and [A]track her down,
[D] Just so I can [A]hang around and [E]cry.
[A]This time, is the last time,
That I'll ever call her name.
Yeah, this [D]time, is the last time,
That I'll ever play her game.
[A]This time, is the last time,
That I'll endure this pain.
'Cause[E] this time, is the last time,
She'll ever hurt me a[A]gain.
[A]INST[E]RUME[A]NTAL
Come on heart lets [E]make believe we're [A]fine.
We'll both agree the [E]pain's just in our [A]mind.
[D] I close my eyes and try [A]not to hear,
[D] The things I'll say when [A]she appears to [E]haunt me.
[A]This time, is the last time,
That I'll ever call her name.
Yeah, this [D]time, is the last time,
That I'll ever play her game.
[A]This time, is the last time,
That I'll endure this pain.
'Cause[E] this time, is the last time,
She'll ever hurt me a[A]gain.
Yeah [E]this time, is the last time,
She'll ever hurt me a[A]gain.[A7]
*************************************************************************************
x = dead note br = bend & release
p = pulloff ~ = vibrato
/ = slide up h = hammer-on
*************************************************************************************
For the INTRO, just hit E7 and bend it up and down with tremolo bar.
And the same at the end of the song with A7 chord.
LEAD SOLO
[A] [E] 
rake rake
 
 E-----7-8-9-----5-6-7-----2-3-4br-2p0-----------------------------12-14-16-12--
 B----x---------x---------x-----------3p2-0-2~~/9-10-12--9----------------------
 G---x---------x---------x-----------------------------11-9---11/13---14-16-13--
 D--x---------x---------x----------------------------------9--------------------
 A------------------------------------------------------------------------------
 E------------------------------------------------------------------------------

[A]  
 
 E--0-14p0-12p0-10p0-9p0-7p0-5p0--7-5p0------------------------|
 B-------------------------------------2brbr-------------------|
 G------------------------------------------------2-2-2-2-2----|
 D------------------------------------------2-0-----2-2-2-2----|
 A---------------------------------------------3h4-0-0-0-0-0---|
 E-------------------------------------------------------------|


Important: The song above is NOT stored on the Chordie server. The original song is hosted at www.azchords.com. Chordie works as a search engine and provides on-the-fly formatting. Chordie does not index songs against artists'/composers' will. To remove this song please click here.

Text color:
Chord color:
Chord grids: 
Font size:    
Page size: 

A A7 D E E7
Rate #1 of 3 versions

Jango Player

Login - add to songbook

SHARE PAGE  




You need to log in to post comments