Guitar Tabs, Chords and Lyrics
Server problems seems to be fixed. Chordie has been experiencing problems with songs disappearing. These issues now seems to be fixed, but still verifying the fix. If you find anything strange, please email admin@chordie.com.


Throughout All Time  Dwight Yoakam

Dwight Yoakam - Throughout All Time (tab)
C = x32010 G = 320003
Em = 022000 D = xx0232
A7 = x02020
*****************************************************************************************
[C]INT[G]RO[Em] [D] [G]
I'll still [G]see you walking silently,
Through the [Em]shadows in my [G]mind.
And a vision of your sweet blue eyes
Creeps in[Em]to my dreamful sleep at [G]night.
You still [C]haunt the deepness of my[G] memo[Em]ry,
Guess you [D]will throughout all [G]time.
Little [G]girl, I still remember,
The very [C]dress you wore on that [G]day.
It was so soft a shade of violet,
Lord, how it [A7]took my breath a[D]way.
As the [G]sunshine on that morning
Broke a[C]cross your golden [G]hair,
How I wished to hold you tightly,
Lord, but I was [D]shy and did not [G]dare.
I'll still [G]see you walking silently,
Through the [Em]shadows in my [G]mind.
And a vision of your sweet blue eyes
Creeps in[Em]to my dreamful sleep at [G]night.
You still [C]haunt the deepness of my[G] memo[Em]ry,
Guess you [D]will throughout all [G]time.
[G]INS[Em]TRUM[G]ENTA[Em]L[G] [C] [G] [Em] [D] [G]
Many [G]nights I've sat and wondered
If you might [C]be somebody's [G]wife.
If you're not, I'd long to see you,
If just to [A7]tell you how I've [D]pined.
I've been [G]known to ask of strangers
That I thought [C]might just pass your [G]way,
If they would tell you of these feelings,
That we might [D]meet again some[G]day.
I'll still [G]see you walking silently,
Through the [Em]shadows in my [G]mind.
And a vision of your sweet blue eyes
Creeps in[Em]to my dreamful sleep at [G]night.
You still [C]haunt the deepness of my[G] memo[Em]ry,
Guess you [D]will throughout all [G]time.
You still [C]haunt the deepness of my[G] memo[Em]ry,
Guess you [D]will throughout all [G]time.
Guess you [D]will throughout all [G]time.
*****************************************************************************************
h = hammer-on br = bend & release
/ = slide up pbr = pre-bend & release
b = bend ! = natural harmonic
p = pulloff x = dead note
*****************************************************************************************
GUITAR SOLO (first half of instrumental)
[G] [Em] [G] 
 
 E------------------------------------------------------------------------------
 B----------0-0-0-3----------------------3---3-0---8-0-7-0-8------6-5--0--------
 G-------0-2----0-2br-0-0-----------0-2/4-2/4-0-4/9-0---0-0-9pbr-7-7--4-3-2b-0--
 D--0h2h3--------------3-3-2-0-5-3/5----------------------------------------3-0-
 A----------------------------5-------------------------------------------------
 E------------------------------------------------------------------------------

[Em] [G] 
 
 E--------12!-0--------------------------------------------------------
 B-----12!-----7!--------3----------------------------1p0--------------
 G--12!----------7!-12!-0-2br-0-0--------------------0---x-x-0-3p2p0-0-
 D-----------------------------3-3p2p0-0----------------------------3--
 A------------------------------------3-3-2p0-0-1-2/7------------------
 E-------------------------------------------3-------------------------

[C]  
 
 E---------------------|
 B--0-0-0-0-0-0--------|
 G---2-0-3-0-3-0-3/5---|
 D---------------------|
 A---------------------|
 E---------------------|


Important: The song above is NOT stored on the Chordie server. The original song is hosted at www.azchords.com. Chordie works as a search engine and provides on-the-fly formatting. Chordie does not index songs against artists'/composers' will. To remove this song please click here.

Text color:
Chord color:
Chord grids: 
Font size:    
Page size: 

A7 C D Em G
Rate #1 of 3 versions

Login - add to songbook

SHARE PAGE  




You need to log in to post comments