Guitar Tabs, Chords and Lyrics
Server problems seems to be fixed. Chordie has been experiencing problems with songs disappearing. These issues now seems to be fixed, but still verifying the fix. If you find anything strange, please email admin@chordie.com.


Try Not to Look So Pretty  Dwight Yoakam

Dwight Yoakam - Try Not To Look So Pretty (with picking)
G = 320003 D = xx0232
A = x02220 Bb = x13331
***********************************************************************
[G]INTR[D]O[A] [D]
Verse 1
 
 --------

Try [D]not to look so pretty,
Next time that we [G]meet.
Please don't look so [D]pretty,
And I won't act so [A]weak.
[D]Please don't look so pretty,
You're lovely but its just [G]cruel,
Try not to look so [D]pretty,
And I'll try [A]not to be a [D]fool.
Verse 2
 
 --------

[G]You walk in, steal my mind,
Oh, but [D]who gave you the right,
To [G]treat me like some useless thought
You [Bb]throw away each [A]night?
[D]Please don't look so pretty,
You're lovely but its just [G]cruel,
Try not to look so [D]pretty,
And I'll try [A]not to be a [D]fool.
[G]INST[D]RUME[A]NTAL[D]
Verse 3
 
 --------

[G]You make it hard on me,
Oh, but [D]I try to pretend,
[G]That you're just a lovesick dream
That [Bb]always has to [A]end.
[D]Please don't look so pretty,
You're lovely but its just [G]cruel,
Try not to look so [D]pretty,
And I'll try [A]not to be a [D]fool.
Try [G]not to look so [D]pretty,
And I'll try [A]not to be a [D]fool.[A] [D]
***********************************************************************
INTRO PICKING PATTERN
[G] [D] [A] [D]  
 
 E----3---3----2---2------0---0----2---2------2---2----|
 B-----0---0----3----------2---2----3---3------3---3---|
 G---0---0----2---2------2---2----2---2------2---2-----|
 D-----------0--------------2----0----------0----------|
 A------2--------0--0h2-0------------0---0h2----0------|
 E--3--------------------------------------------------|

1ST VERSE PICKING PATTERN
[D] [G] [D] 
 
 E----2---2---2---2-----2--2--2---3---3---3---3----2---2------2---2---
 B-----3---3---3---------3---------0---0---0---0----3---3------3---3--
 G---2---2---2---2-----2---------0---0---0---0----2---2------2---2----
 D--0-------0---------0--------------------------0----------0---------
 A------0-------0--0h2--------------2-------2--------0---0h2----0-----
 E------------------------0--2--3-------3-----------------------------

[A] [D] [G] 
 
 E----0---0---0---0--0---2---2---2---2-----2--2--2---3---3---3---3----
 B-----2---2--------------3---3---3---------3---------0---0---0---0---
 G---2---2---2----------2---2---2---2-----2---------0---0---0---0-----
 D------2--------------0-------0---------0----------------------------
 A--0-------0--0-2--4------0-------0--0h2--------------2-------2------
 E-------------------------------------------0--2--3-------3----------

D A D (to instrumental)
 
 E----2---2-------0---0----2---2------2-2--2------|
 B-----3---3-------2---2----3---3----3------------|
 G---2---2-------2---2----2---2-----2-------------|
 D--0---------------2----0---------0--------------|
 A------0---0h2-0------------0--0h2---------------|
 E-------------------------------------0--2-------|


Important: The song above is NOT stored on the Chordie server. The original song is hosted at www.azchords.com. Chordie works as a search engine and provides on-the-fly formatting. Chordie does not index songs against artists'/composers' will. To remove this song please click here.

Text color:
Chord color:
Chord grids: 
Font size:    
Page size: 

A Bb D G
Rate #1 of 6 versions

Login - add to songbook

SHARE PAGE  




You need to log in to post comments