Guitar Tabs, Chords and Lyrics
Server problems seems to be fixed. Chordie has been experiencing problems with songs disappearing. These issues now seems to be fixed, but still verifying the fix. If you find anything strange, please email admin@chordie.com.


Turn It On, Turn It Up, Turn Me Loose  Dwight Yoakam

Dwight Yoakam - Turn It On, Turn It Up, Turn Me Loose (with lead)
E = 022100 B7 = x21202
A = x02220
***********************************************************************
Verse 1
 
 --------

[E]Well I'm back again, for a[B7]nother night,
Of trying to break free
[E] 
This old honkytonk sure does [B7]feel like home,
And the music with the laughter seemed to suit my loneli[E]ness.
Chorus
 
 -------

So turn it [A]on, turn it up, turn me loose,
For a memory thats [E]driving me lonely, crazy and blue.
It [A]helps me forget her, so the louder the better,
Hey [E]mister turn it on, turn it [B7]up, turn me [E]loose.
[E]INST[B7]RUMEN[E]TAL[B7] [E]
Verse 2
 
 --------

If a [E]tear should fall, if I should [B7]whisper her name,
To some stranger I'm holdin',
While we're dancin' to an old Buck Owens [E]song.
I know she won't mind, she won't [B7]even know,
She'll be dancin' with a memory crying teardrops of her [E]own.
*REPEAT CHORUS* (x2)
Yeah [E]mister turn it on, turn it [B7]up, turn me [E]loose.
***********************************************************************
x = heavily muted note br = bend and release
(n) = harmonic / = slide up
\ = slide down h = hammer on
p = pulloff
***********************************************************************
LEAD GUITAR SOLO
 
 E--------------------(12)-----------------------
 B-----------------------------------------------
 G-----------------------------------------------
 D-----------------------------4-4h6/7\6p4-6-4---
 A--------------------------4/6-6---------6-6----
 E--x-x-2br-2br-0--(7)---------------------------
 E-----------------------------------------------------------------|
 B-----------------------------------------------------------------|
 G-----------------------------------------------------------------|
 D-----4-4-6/7-6-4-6-4-6-----4p0-4\2p0-0---------------------------|
 A--4/6-6---------6-6-----4/6---6-----4-4p2p0-0-------(7)----------|
 E-------------------------------------------4-4p2-0-----(7)-(12)--|


Important: The song above is NOT stored on the Chordie server. The original song is hosted at www.azchords.com. Chordie works as a search engine and provides on-the-fly formatting. Chordie does not index songs against artists'/composers' will. To remove this song please click here.

Text color:
Chord color:
Chord grids: 
Font size:    
Page size: 

A B7 E
Rate #1 of 8 versions

Login - add to songbook

SHARE PAGE  




You need to log in to post comments