Guitar Tabs, Chords and Lyrics
Server problems seems to be fixed. Chordie has been experiencing problems with songs disappearing. These issues now seems to be fixed, but still verifying the fix. If you find anything strange, please email admin@chordie.com.


Wild Ride  Dwight Yoakam

Dwight Yoakam - Wild Ride (tab)
Unfortunately, I can't make out the lead at the end of the song, because
Dwight is singing over most of it....so you'd need to improvise through that.
But the main solo is still well worth learning!
A = x02220 E = 022100
D = xx0232
**************************************************************************************
[A]INTRO
I walked in, there said Slim,
Cleaning up his memory with some sapphire gin.
Mr. [E]Paine grabbed my [A]arm, [E]pulled me a[A]side,
And said [D]"Kid, are you ready for the [E]wild ride"?
[A]I looked up, there she stood,
I said "If you didn't look so great I'd say you looked good".
Oh,[E] she took her [A]hand ran it[E] up my [A]thigh and said:
[D] Cowboy, you ready for the [E]wild ride?
Come on now junior, take the [A]wild ride.
See can you make it on the wild ride.
Don't try no shakin' on the [E]wild ride.
'Cause things start breakin' on the [A]wild ride.
Layin' on the highway, I saw my mind,
In tiny little pieces thrown from side to side.
My[E] heart was [A]shattered a[E]long with my [A]pride,
[D] Guess you can't keep 'em on the [E]wild ride.
Come on now junior, take the [A]wild ride.
See can you make it on the wild ride.
Don't try no shakin' on the [E]wild ride.
'Cause things start breakin' on the [A]wild ride.
[A]INSTRU[E]MENT[A]AL[E] [A]
I was crawlin' cross the floor, I was tryin' to leave,
When I felt someone tugging what was left of my sleeve.
I heard a[E] little [A]voice with a[E] gold-plated [A]vibe say:
[D] I bought a ticket for the [E]wild ride.
Come on junior, take the [A]wild ride.
See can we make it on the wild ride.
Lets try to shake it on the [E]wild ride.
We might just break it on the [A]wild ride.
Come on junior, take the wild ride.
See can we make it on the wild ride.
Lets try to shake it on the [E]wild ride.
We might just break it on the [A]wild ride.
Come on, come on, take me on the wild ride.
See can you make me on the wild ride.
Come on and shake me on the [E]wild ride.
You might just break me on the [A]wild ride.[E] [A] [E] [A]
**************************************************************************************
b = bend / = slide up
\ = slide down br = bend & release
h = hammer-on p = pulloff
~ = vibrato
**************************************************************************************
INTRO (repeated as necessary, also played through verse)
[A]  
 
 E-------------------|
 B----2--2----2--2---|
 G----2--2----2--2---|
 D----2--2----2--2---|
 A----0--0----0--0---|
 E--3b------3b-------|

FIRST LEAD SOLO
[A]  
 
 E-----------9-------9--9----------9-------9----------9----------9-------9-
 B--9/10-10-10-9/10-10-10-9/10-10-10-9/10-10-9/10-10-10-9/10-10-10-9/10-10-
 G--8/9---9----8/9--------8/9---9----8/9-----8/9---9----8/9---9----8/9-----
 D-------------------------------------------------------------------------
 A-------------------------------------------------------------------------
 E-------------------------------------------------------------------------

[E] [A] 
 
 E-----------9----------9---------3b-0---------7--0-------9----9-7----5-0-
 B--9/10-10-10-9/10-10-10-9/10\8--2b---3-5---5-7br------9--------------7--
 G--8/9---9----8/9---9----8/-9\7------4---4/6-------9h11-9--7/9--7-4/6----
 D-------------------------------------------------9----------------------
 A------------------------------------------------------------------------
 E------------------------------------------------------------------------

[E] 
 
 E--5-----------------------0-3-----------------------0-3-----------7-7-
 B--5br-2---------------------3brbr---------------------3brbr-2-3/8-8-8-
 G-------4-2-2--2p0-0--------------2-0----2p0-0----------------2--------
 D----------4------0----0-------------2p0----0----0---------------------
 A------------0------5p0-3b~-------------------5p0-3b~------------------
 E----------------------------------------------------------------------

[A] 
 
 E--7/10-10-10-10/12-12-12-15--15--15--15--15---3/5-5\3------------------------|
 B--8/12-12-12-12/14-14-14-14b-14b-14b-14b-14b\-3/5-5\3-0-1b-------------------|
 G------------------------------------------------------0---2-0h2-0------------|
 D-----------------------------------------------------------0-----2-----------|
 A------------------------------------------------------------------3b-0-------|
 E----------------------------------------------------------------------0-3b---|


Important: The song above is NOT stored on the Chordie server. The original song is hosted at www.azchords.com. Chordie works as a search engine and provides on-the-fly formatting. Chordie does not index songs against artists'/composers' will. To remove this song please click here.

Text color:
Chord color:
Chord grids: 
Font size:    
Page size: 

A D E
Rate #1 of 4 versions

Jango Player

Login - add to songbook

SHARE PAGE  



You need to log in to post comments