Guitar Tabs, Chords and Lyrics
Major upgrade!! After one year development the new version of Chordie is now online! Please give feedback.


After the Thrill Is Gone  Eagles

The Eagles
After the Thrill is Gone
Intro:
[G] [C] [G] [C] [C/B] [Am] [G] [Am] [G] [D] 
Verse 1:
[G]Same dances in the [C]same old shoes
[G]Some habits that you[C] just can't lose[C/B]
[Am]There's no telling what a [G]man might lose,
[Am]After the thrill is gone[G] [D]
Verse 2:
[G]The flame rises but[C] it soon descends
[G]Empty pages and a f[C]rozen pen[C/B]
[Am]You're not quite lovers an[G]d you're not quite friends
[Am]After the thrill is gone, [G]oh,
[Am]After the thrill is gone [G] [D/F#]
Bridge:
[Em]What can you do when you[Bm7]r dreams come true
And it's[Am7] not quite like you pla[G]nned?
[Em] What have you done to be lo[Bm7]sing the one
[Cm]You held it so tight in your [D7]hand, well
Verse 3:
[G]Time passes and you m[C]ust move on,
[G]Half the distance takes you t[C]wice as long[C/B]
[Am]So you keep on singing for the s[G]ake of the song
[Am]After the thrill is gone [G]
[Am]After the thrill is gone [G] [D]
Solo over Verse Chords:
 
 --------------------------|-----------------|--10b(12)-10-8-7-8-7h8p7--------|
 --5/8-5-3h5---------------|------------8----|------------------------10-8-10-|
 -----------4------4 2p0h5-|-----5-7-7/9-9p7-|--------------------------------|
 -----------------5--------|--5h7------------|--------------------------------|
 --------------5-5---------|-----------------|--------------------------------|
 --------------------------|-----------------|--------------------------------|
 -------------------------------------15-----------|-------------------|
 --8-----------------------------------------------|-------------------|
 ---9----------12-14b(16)14p12-14b(16)--(16)b14p12-|----------12-12h14-|
 ----9-10-12-14------------------------------------|--12-12h14---------|
 --------------------------------------------------|-------------------|
 --------------------------------------------------|-------------------|
 ------------------------17b(19)b17-15-15h17p15----|
 -------------15b(17)-15------------------------17-|
 --14b(16)-14--------------------------------------|
 --------------------------------------------------|
 --------------------------------------------------|
 --------------------------------------------------|

Bridge:
[Em]You're afraid you might fall out of fash[Bm7]ion
And you're [Am7]feeling cold and sm[G]all [D/F#]
[Em]Any kind of love without pas[Bm7]sion
[Cm]That ain't no kind of lovin' [D7]at all, well
Verse 4:
[G]Same dances in the [C]same old shoes
[G]You get too careful [C]with the steps you choose [C/B]
[Am]you don't care about winning but you d[G]on't want to lose
[Am]After the thrill is gone [G]
[Am]After the thrill is gone [G]
[Am]After the thrill is gone,[G] oh
[Am]After the thrill is gone [G] [Cm] [G] [C] [Cm]
End on G
[Bm7] 2 [Am7] 0 [D/F#] 2 [C/B] 0 [Cm] 3
[3]2 [1]0 [3]2 [1]0 [4]5
2 2 0 0 5
2 0 0 2 3
x x 2 x x
Yost with the Most

Important: The song above is NOT stored on the Chordie server. The original song is hosted at www.azchords.com. Chordie works as a search engine and provides on-the-fly formatting. Chordie does not index songs against artists'/composers' will. To remove this song please click here.

Text color:
Chord color:
Chord grids: 
Font size:    
Page size: 

Am Am7 Bm7 C C/B Cm D D/F# D7 Em G
Rate #1 of 11 versions

Login - add to songbook

SHARE PAGE  




You need to log in to post comments