Guitar Tabs, Chords and Lyrics
Server problems seems to be fixed. Chordie has been experiencing problems with songs disappearing. These issues now seems to be fixed, but still verifying the fix. If you find anything strange, please email admin@chordie.com.


Blue Suede Shoes  Eddie Cochran

1st Verse
Q=184(8=s8)
N.C. A
[4/4] Gtr I (Clean El. Gtr.)[2/4] [4/4] [2/4]
W H Q Q Q Q H Q Q Q Q
 
 |----------|------------|-------|------------|---------|
 |----------|------------|-------|------------|---------|
 |----------|------------|-------|------------|---------|
 |----------|------------|-------|------------|---------|
 |----------|---------7--|-7-----|---------7--|-7-------|
 |----------|---------5--|-5-----|---------5--|-5-------|

|
| Gtr II (Clean El. Gtr.)
| W H Q Q Q Q H Q Q Q Q
 
 |----------|------------|-------|------------|---------|
 |----------|---------2--|-2-----|---------2--|-2-------|
 |----------|---------2--|-2-----|---------2--|-2-------|
 |----------|---------2--|-2-----|---------2--|-2-------|
 |----------|------------|-------|------------|---------|
 |----------|------------|-------|------------|---------|

[A] [D5]  
[4/4] W E E E E E E E E E E E E E E E E E E E E E E E E
 
 |----------|-----------------|-----------------|-----------------|
 |----------|-----------------|-----------------|-----------------|
 |----------|-----------------|-----------------|-----------------|
 |----------|-----------------|-7-7-9-7-7-7-9-7-|-7-7-9-7-7-7-9-7-|
 |----------|-7-7-7-7-7-7-7-7-|-5-5-5-5-5-5-5-5-|-5-5-5-5-5-5-5-5-|
 |----------|-5-5-5-5-5-5-5-5-|-----------------|-----------------|

|
| W E E E E E E E E E E E E E E E E E E E E E E E E
 
 |----------|-----------------|-----------------|-----------------|
 |----------|-2-2-2-2-2-2-2-2-|-----------------|-----------------|
 |----------|-2-2-2-2-2-2-2-2-|-----------------|-----------------|
 |----------|-2-2-2-2-2-2-2-2-|-7-7-9-7-7-7-9-7-|-7-7-9-7-7-7-9-7-|
 |----------|-----------------|-5-5-5-5-5-5-5-5-|-5-5-5-5-5-5-5-5-|
 |----------|-----------------|-----------------|-----------------|

[A5] [E5] 
[E] [E] [E] [E] [E] [E] [E] [E] [E] [E] [E] [E] [E] [E] [E] [E] [E] [E] [E] [E] [E] [E] [E] [E]  
 
 |-----------------|-----------------|-------------------|
 |-----------------|-----------------|-------------------|
 |-----------------|-----------------|-------------------|
 |-----------------|-----------------|-9-9-11-9-9-9-11-9-|
 |-7-7-9-7-7-7-9-7-|-7-7-9-7-7-7-9-7-|-7-7--7-7-7-7--7-7-|
 |-5-5-5-5-5-5-5-5-|-5-5-5-5-5-5-5-5-|-------------------|

|
| E q E q Q E q E q Q E E E E E E E E
 
 |-----------------|-----------------|-------------------|
 |---2-----2-------|---2-----2-------|-------------------|
 |---2-----2-------|---2-----2-------|-------------------|
 |---2-----2-------|---2-----2-------|-9-9-11-9-9-9-11-9-|
 |-----------------|-----------------|-7-7--7-7-7-7--7-7-|
 |-----------------|-----------------|-------------------|

[D5] [A5]  
[E] [E] [E] [E] [E] [E] [E] [E] [E] [E] [E] [E] [E] [E] [E] [E] [E] [E] [E] [E] [E] [E] [E] [E]  
 
 |-----------------|-----------------|-----------------||
 |-----------------|-----------------|-----------------||
 |-----------------|-----------------|-----------------||
 |-7-7-9-7-7-7-9-7-|-----------------|-----------------||
 |-5-5-5-5-5-5-5-5-|-7-7-9-7-7-7-9-7-|-7-7-9-7-7-7-9-7-||
 |-----------------|-5-5-5-5-5-5-5-5-|-5-5-5-5-5-5-5-5-||

|
| E E E E E E E E E E E E E E E E E E E E E E E E
 
 |-----------------|-----------------|-----------------||
 |-----------------|-----------------|-----------------||
 |-----------------|-----------------|-----------------||
 |-7-7-9-7-7-7-9-7-|-----------------|-----------------||
 |-5-5-5-5-5-5-5-5-|-7-7-9-7-7-7-9-7-|-7-7-9-7-7-7-9-7-||
 |-----------------|-5-5-5-5-5-5-5-5-|-5-5-5-5-5-5-5-5-||

2nd & 3rd Verses
$
[A]  
[4/4] Q Q Q Q Q Q Q Q Q Q Q Q
 
 |--------------|--------------|--------------|
 |--------------|--------------|--------------|
 |--------------|--------------|--------------|
 |--------------|--------------|--------------|
 |-7---------7--|-7---------7--|-7---------7--|
 |-5---------5--|-5---------5--|-5---------5--|

|
| Q Q E E Q Q Q E E Q Q Q E E Q
 
 |--------------|--------------|--------------|
 |-2-------2-2--|-2-------2-2--|-2-------2-2--|
 |-2-------2-2--|-2-------2-2--|-2-------2-2--|
 |-2-------2-2--|-2-------2-2--|-2-------2-2--|
 |--------------|--------------|--------------|
 |--------------|--------------|--------------|

Chorus
$$
Q Q Q Q Q Q Q Q Q Q Q Q E E E E E E E E
|--------------||--------------|--------------|------------------|
|--------------||--------------|--------------|------------------|
|--------------||--------------|--------------|------------------|
|--------------||--------------|--------------|------------------|
|-7---------7--||-7---------7--|-7---------7--|-7-7-7-7-7-7-7-7--|
|-5---------5--||-5---------5--|-5---------5--|-5-5-5-5-5-5-5-5--|
|
| Q Q E E Q Q Q E E Q Q Q E E Q E E E E E E E E
|--------------||--------------|--------------|------------------|
|-2-------2-2--||-2-------2-2--|-2-------2-2--|-2-2-2-2-2-2-2-2--|
|-2-------2-2--||-2-------2-2--|-2-------2-2--|-2-2-2-2-2-2-2-2--|
|-2-------2-2--||-2-------2-2--|-2-------2-2--|-2-2-2-2-2-2-2-2--|
|--------------||--------------|--------------|------------------|
|--------------||--------------|--------------|------------------|
D5 A5
|-----------------|-----------------|-----------------|------------------|
|-----------------|-----------------|-----------------|------------------|
|-----------------|-----------------|-----------------|------------------|
|-----------------|-7-7-9-7-7-7-9-7-|-7-7-9-7-7-7-9-7-|------------------|
|-7-7-7-7-7-7-7-7-|-5-5-5-5-5-5-5-5-|-5-5-5-5-5-5-5-5-|-7-7-9-7-7-7-9-7--|
|-5-5-5-5-5-5-5-5-|-----------------|-----------------|-5-5-5-5-5-5-5-5--|
|
| E E E E E E E E E E E E E E E E E E E E E E E E E E E E E E E E
|-----------------|-----------------|-----------------|------------------|
|-2-2-2-2-2-2-2-2-|-----------------|-----------------|------------------|
|-2-2-2-2-2-2-2-2-|-----------------|-----------------|------------------|
|-2-2-2-2-2-2-2-2-|-7-7-9-7-7-7-9-7-|-7-7-9-7-7-7-9-7-|------------------|
|-----------------|-5-5-5-5-5-5-5-5-|-5-5-5-5-5-5-5-5-|-7-7-9-7-7-7-9-7--|
|-----------------|-----------------|-----------------|-5-5-5-5-5-5-5-5--|
To Coda
To Coda
E5 D5 A5
|-----------------|-------------------|------------------|-----------------|
|-----------------|-------------------|------------------|-----------------|
|-----------------|-------------------|------------------|-----------------|
|-----------------|-9-9-11-9-9-9-11-9-|-7-7-9-7-7-7-9-7--|-----------------|
|-7-7-9-7-7-7-9-7-|-7-7--7-7-7-7--7-7-|-5-5-5-5-5-5-5-5--|-7-7-9-7-7-7-9-7-|
|-5-5-5-5-5-5-5-5-|-------------------|------------------|-5-5-5-5-5-5-5-5-|
|
| E E E E E E E E E E E E E E E E E E E E E E E E E E E E E E E E
|-----------------|-------------------|------------------|-----------------|
|-----------------|-------------------|------------------|-----------------|
|-----------------|-------------------|------------------|-----------------|
|-----------------|-9-9-11-9-9-9-11-9-|-7-7-9-7-7-7-9-7--|-----------------|
|-7-7-9-7-7-7-9-7-|-7-7--7-7-7-7--7-7-|-5-5-5-5-5-5-5-5--|-7-7-9-7-7-7-9-7-|
|-5-5-5-5-5-5-5-5-|-------------------|------------------|-5-5-5-5-5-5-5-5-|
Guitar Solo
A5
|-----------------||-----------------|-----------------|------------------|
|-----------------||-----------------|-----------------|------------------|
|-----------------||-----------------|-----------------|------------------|
|-----------------||-----------------|-----------------|------------------|
|-7-7-9-7-7-7-9-7-||-7-7-9-7-7-7-9-7-|-7-7-9-7-7-7-9-7-|-7-7-9-7-7-7-9-7--|
|-5-5-5-5-5-5-5-5-||-5-5-5-5-5-5-5-5-|-5-5-5-5-5-5-5-5-|-5-5-5-5-5-5-5-5--|
|
| E E E E E E E E E E E E E E E E E E E E E E E E E E E E E E E E
|-----------------||-----------------|-----------------|------------------|
|-----------2-2-2-||-2-2-2---2-2-2---|-2-2-2---2-2-2---|-2-2-2---2-2-2----|
|-----------2-2-2-||-2-2-2---2-2-2---|-2-2-2---2-2-2---|-2-2-2---2-2-2----|
|-----------2-2-2-||-2-2-3h4-2-2-3h4-|-2-2-3h4-2-2-3h4-|-2-2-3h4-2-2-3h4--|
|-7-7-9-7-0-------||-----------------|-----------------|------------------|
|-5-5-5-5---------||-----------------|-----------------|------------------|
D5
|-----------------|-----------------|
|-----------------|-----------------|
|-----------------|-----------------|
|-----------------|-7-7-9-7-7-7-9-7-|
|-7-7-9-7-7-7-9-7-|-5-5-5-5-5-5-5-5-|
|-5-5-5-5-5-5-5-5-|-----------------|
|
| E E E E E E E E E E E E E E E E
|-----------------|-----------------|
|-2-2-2---2-2-2---|-5---5-7-5---5---|
|-2-2-2---2-2-2---|-5---5-7-5---5---|
|-2-2-3h4-2-2-3h4-|---7-------7---7-|
|-----------------|-----------------|
|-----------------|-----------------|
A5
|-----------------|-------------------------|
|-----------------|-------------------------|
|-----------------|-------------------------|
|-7-7-9-7-7-7-9-7-|-------------------------|
|-5-5-5-5-5-5-5-5-|-7--7-9-7--7-7-9------7--|
|-----------------|-5--5-5-5--5-5-5------5--|
|
| E E E E E E q E E Q E E E a +E
|-----------------|---/5-----/5-----7b8-(7)-|
|-5---5-7-5---5---|---/5-----/5-----7b8-(7)-|
|-5---5-7-5---5---|---/6-----/6-------------|
|---7-------7-----|-------------------------|
|-----------------|-------------------------|
|-----------------|-------------------------|
E5
|---------------------------|---------------------------|
|---------------------------|---------------------------|
|---------------------------|---------------------------|
|---------------------------|-9---9-11-9-----9---9-11-9-|
|-7-------7--9--7---7-7-9-7-|-7---7--7-7-----7---7--7-7-|
|-5-------5--5--5---5-5-5-5-|---------------------------|
|
| E a +Q +E E Q E Q E E +E E E E
|---7b8==(7)---(7)r-5-------|---------------------------|
|---7b8==(7)---(7)r-5-7-----|-5------5-5----(5)--5--5-5-|
|---------------------7-----|-7b9------7b9==(7)r--------|
|---------------------------|---------------------------|
|---------------------------|---------------------------|
|---------------------------|---------------------------|
D5 A5
|------------------|-----------------|
|------------------|-----------------|
|------------------|-----------------|
|-7--7-9-7-7-7-9-7-|-----------------|
|-5--5-5-5-5-5-5-5-|-7-7-9-7-7-7-9-7-|
|------------------|-5-5-5-5-5-5-5-5-|
|
| E Q E E E E E E E E E E E E E
|---/5-------------|-----------------|
|---/5-------------|-----------------|
|--------5-6-------|-----------------|
|------------7-7-7-|-------------4-4-|
|------------------|-----4-4-7-7-----|
|------------------|-5-5-------------|
D.S. al Coda & D.S.S. al Dbl. Coda
A5
|-------------------||-----------------|------------------||
|-------------------||-----------------|------------------||
|-------------------||-----------------|------------------||
|-------------------||-----------------|------------------||
|--7-7-9-7-7-7-9-7--||-7-7-9-7-7-7-9-7-|-7-7-9-7-7-7-9-7--||
|--5-5-5-5-5-5-5-5--||-5-5-5-5-5-5-5-5-|-5-5-5-5-5-5-5-5--||
|
| E E E E E E E E E E E E E E E E E E E E E E E E
|-------------------||-----------------|------------------||
|-------------------||-----------------|------------------||
|-/6-6--------------||-----------------|------------------||
|-/7-7-4-4----------||-7-7-7-7-7-7-7-7-|-7-7-7-7-7-7-7-7--||
|----------7-7-4-4--||-7-7-9-7-7-7-9-7-|-7-7-9-7-7-7-9-7--||
|-------------------||-5-5-5-5-5-5-5-5-|-5-5-5-5-5-5-5-5--||
Outro
&&
A5 A
|-----------------|-----------------||-----------------|------------------|
|-----------------|-----------------||-----------------|------------------|
|-----------------|-----------------||-----------------|------------------|
|-----------------|-----------------||-----------------|------------------|
|-7-7-9-7-7-7-9-7-|-7-7-9-7-7-7-9-7-||-7-7-9-7-7-7-9-7-|-7-7-9-7-7-7-9-7--|
|-5-5-5-5-5-5-5-5-|-5-5-5-5-5-5-5-5-||-5-5-5-5-5-5-5-5-|-5-5-5-5-5-5-5-5--|
|
| E E E E E E E E E E E E E E E E E E E E E E E E E E E E E E E E
|-----------------|-----------------||-----------------|------------------|
|-----------------|-----------------||-----------------|------------------|
|-----------------|-----------------||-6-6-6-6-6-6-6-6-|-6-6-6-6-6-6-6-6--|
|-7-7-7-7-7-7-7-7-|-7-7-7-7-7-7-7-7-||-7-7-7-7-7-7-7-7-|-7-7-7-7-7-7-7-7--|
|-7-7-9-7-7-7-9-7-|-7-7-9-7-7-7-9-7-||-7-7-9-7-7-7-9-7-|-7-7-9-7-7-7-9-7--|
|-5-5-5-5-5-5-5-5-|-5-5-5-5-5-5-5-5-||-5-5-5-5-5-5-5-5-|-5-5-5-5-5-5-5-5--|
D
|-----------------|-----------------|-----------------|------------------|
|-----------------|-----------------|-----------------|------------------|
|-----------------|-----------------|-----------------|------------------|
|-----------------|-----------------|-7-7-9-7-7-7-9-7-|-7-7-9-7-7-7-9-7--|
|-7-7-9-7-7-7-9-7-|-7-7-9-7-7-7-9-7-|-5-5-5-5-5-5-5-5-|-5-5-5-5-5-5-5-5--|
|-5-5-5-5-5-5-5-5-|-5-5-5-5-5-5-5-5-|-----------------|------------------|
|
| E E E E E E E E E E E E E E E E E E E E E E E E E E E E E E E E
|-----------------|-----------------|-----------------|------------------|
|-----------------|-----------------|-7-7-7-7-7-7-7-7-|-7-7-7-7-7-7-7-7--|
|-6-6-6-6-6-6-6-6-|-6-6-6-6-6-6-6-6-|-7-7-7-7-7-7-7-7-|-7-7-7-7-7-7-7-7--|
|-7-7-7-7-7-7-7-7-|-7-7-7-7-7-7-7-7-|-7-7-9-7-7-7-9-7-|-7-7-9-7-7-7-9-7--|
|-7-7-9-7-7-7-9-7-|-7-7-9-7-7-7-9-7-|-5-5-5-5-5-5-5-5-|-5-5-5-5-5-5-5-5--|
|-5-5-5-5-5-5-5-5-|-5-5-5-5-5-5-5-5-|-----------------|------------------|
A E D
|-----------------|-----------------|-------------------|------------------|
|-----------------|-----------------|-------------------|------------------|
|-----------------|-----------------|-------------------|------------------|
|-----------------|-----------------|-9-9-11-9-9-9-11-9-|-7-7-9-7-7-7-9-7--|
|-7-7-9-7-7-7-9-7-|-7-7-9-7-7-7-9-7-|-7-7--7-7-7-7--7-7-|-5-5-5-5-5-5-5-5--|
|-5-5-5-5-5-5-5-5-|-5-5-5-5-5-5-5-5-|-------------------|------------------|
|
| E E E E E E E E E E E E E E E E E E E E E E E E E E E E E E E E
|-----------------|-----------------|-------------------|------------------|
|-----------------|-----------------|-9-9--9-9-9-9--9-9-|-7-7-7-7-7-7-7-7--|
|-6-6-6-6-6-6-6-6-|-6-6-6-6-6-6-6-6-|-9-9--9-9-9-9--9-9-|-7-7-7-7-7-7-7-7--|
|-7-7-7-7-7-7-7-7-|-7-7-7-7-7-7-7-7-|-9-9-11-9-9-9-11-9-|-7-7-9-7-7-7-9-7--|
|-7-7-9-7-7-7-9-7-|-7-7-9-7-7-7-9-7-|-7-7--7-7-7-7--7-7-|-5-5-5-5-5-5-5-5--|
|-5-5-5-5-5-5-5-5-|-5-5-5-5-5-5-5-5-|-------------------|------------------|
E Q. Q Q Q E E +H +W
|--------------|---------------|--------*|
|--------------|-2--2----------|--------*|
|--------------|-2--2----------|--------*|
|--------------|-2--2-2-(2)----|-(2)----*|
|---0----4--5--|------0-(0)----|-(0)----*|
|--------------|---------------|--------*|
|
| E Q. Q Q Q E E +H +W
|--------------|---------------|--------*|
|--------------|-2--2----------|--------*|
|--------------|-2--2-2-(2)----|-(2)----*|
|---2----2--4--|-2--2-2-(2)----|-(2)----*|
|---0----4--5--|------0-(0)----|-(0)----*|
|--------------|---------------|--------*|

Important: The song above is NOT stored on the Chordie server. The original song is hosted at www.azchords.com. Chordie works as a search engine and provides on-the-fly formatting. Chordie does not index songs against artists'/composers' will. To remove this song please click here.

Text color:
Chord color:
Chord grids: 
Font size:    
Page size: 

A A5 D5 E E5
Rate #1 of 1 versions

Login - add to songbook

SHARE PAGE  




You need to log in to post comments