Guitar Tabs, Chords and Lyrics
Server problems seems to be fixed. Chordie has been experiencing problems with songs disappearing. These issues now seems to be fixed, but still verifying the fix. If you find anything strange, please email admin@chordie.com.


C'mon Everybody  Eddie Cochran

 
 e |----------------------|----------------------|
 B |----------------------|----------------------|
 G |----------------------|----------------------| M-riff
 D |----------------------|----------------------|
 A |-2-4-2------------- --|----------------------|
 E |-------3-2-0----------|----------------------|

1st riff:
 
 e |----------------------|----------------------|
 B |----------------------|----------------------|
 G |----------------------|----------------------| 1st riff
 D |----------------------|----------------------|
 A |----------------------|----------------------|
 E |-0-0-0-0-0-0-0-0-0-0-0|-0-0-0-0-0-0-0-0-0-0-0| 2x

2nd riff:
 
 e |----------------------|----------------------|
 B |----------------------|----------------------|
 G |----------------------|----------------------| 2nd riff
 D |----------------------|----------------------|
 A |2-2-4-4-2-2-4-4-2-2-4-4-2-2-4-4-2-2-4-4-2-2-4|
 E |0-0-0-0-0-0-0-0-0-0-0-0-0-0-0-0-0-0-0-0-0-0-0| 2x
 ----------------------------------------------------------------------------------------------------------

**1st riff*
E A B A E **M-Riff** E A B A E **M-Riff**
**2nd riff**
Ah well c'mon everybody and let's get together tonight
I got some money in my jeans and im really gonna spend it right
Well i've been do[E]ing my homework a[A]ll the week along
And n[E]ow the house is empty and all the fo[A]lks are gone[E]
Ooo C'mon everybody E A B A E **M-Riff** E A B A E **M-Riff**
**2nd riff**
Ah well my baby's number one but I'm gonna dance with three or four
And the house'll be a-shakin' from my bare feet slappin' on the floor **2nd riff**
Well, wh[E]en you hear that music you c[A]an't sit still
If your br[E]other won't rock then your si[A]ster will[E]
Ooo C'mon everybody E A B A E **M-Riff** E A B A E **M-Riff**
**2nd riff**
Well we'll really have a party but we gotta put a guard outside
If my folks come a-home I'm afraid they're gonna have my hide
They'll be [E]no more movies for a w[A]eek or two
N[E]o more runnin' round with the us[A]ual crew[E]
Who cares C'mon everybody
E A B A E **M-Riff** E A B A E **M-Riff**
C'mon everybody
E A B A E **M-Riff** E A B A E

Important: The song above is NOT stored on the Chordie server. The original song is hosted at www.azchords.com. Chordie works as a search engine and provides on-the-fly formatting. Chordie does not index songs against artists'/composers' will. To remove this song please click here.

Text color:
Chord color:
Chord grids: 
Font size:    
Page size: 

A E
Rate #1 of 10 versions

Login - add to songbook

SHARE PAGE  



You need to log in to post comments