Guitar Tabs, Chords and Lyrics
Server problems seems to be fixed. Chordie has been experiencing problems with songs disappearing. These issues now seems to be fixed, but still verifying the fix. If you find anything strange, please email admin@chordie.com.


Long Tall Sally  Eddie Cochran

1st - 5th Verses
Q=198(8=s8)
$
[A]  
[4/4] Gtr I (Clean El. Gtr.)
W Q Q Q Q Q Q Q Q Q Q H
 
 |----------||--------------|-------------|------------|
 |----------||o-------------|-------------|------------|
 |----------||--------------|-------------|------------|
 |----------||--------------|-------------|------------|
 |----------||o-7--------7--|-7--------7--|-7----------|
 |----------||--5--------5--|-5--------5--|-5----------|

|
| Gtr II (Clean El. Gtr.)
| W Q Q Q Q Q Q Q Q Q Q H
 
 |----------||--5--------5--|-5--------5--|-5----------|
 |----------||o-5--------5--|-5--------5--|-5----------|
 |----------||--6--------6--|-6--------6--|-6----------|
 |----------||--7--------7--|-7--------7--|-7----------|
 |----------||o-------------|-------------|------------|
 |----------||--------------|-------------|------------|

[D5] [A5] 
[E] [E] [E] [E] [E] [E] [E] [E] [E] [E] [E] [E] [E] [E] [E] [E] [E] [E] [E] [E] [E] [E] [E] [E] [E] [E] [E] [E] [E] [E] [E] [E]  
 
 |-----------------|------------------|------------------|-------------------|
 |-----------------|------------------|------------------|-------------------|
 |-----------------|------------------|------------------|-------------------|
 |-----------------|-7-7-9-7-10-7-9-7-|-7-7-9-7-10-7-9-7-|-------------------|
 |-7-7-7-7-7-7-7-7-|-5-5-5-5--5-5-5-5-|-5-5-5-5--5-5-5-5-|-7-7-9-7-10-7-9-7--|
 |-5-5-5-5-5-5-5-5-|------------------|------------------|-5-5-5-5--5-5-5-5--|

|
| E E E E E E E E E E E E E E E E E E E E E E E E E E E E E E E E
 
 |-5-5-5-5-5-5-5-5-|------------------|------------------|-------------------|
 |-5-5-5-5-5-5-5-5-|------------------|------------------|-------------------|
 |-6-6-6-6-6-6-6-6-|------------------|------------------|-------------------|
 |-7-7-7-7-7-7-7-7-|-7-7-9-7-10-7-9-7-|-7-7-9-7-10-7-9-7-|-------------------|
 |-----------------|-5-5-5-5--5-5-5-5-|-5-5-5-5--5-5-5-5-|-7-7-9-7-10-7-9-7--|
 |-----------------|------------------|------------------|-5-5-5-5--5-5-5-5--|

To Coda
[E5] [D5] [A5] 
[E] [E] [E] [E] [E] [E] [E] [E] [E] [E] [E] [E] [E] [E] [E] [E] [E] [E] [E] [E] [E] [E] [E] [E] [E] [E] [E] [E] [E] [E] [E] [E]  
 
 |------------------|--------------------|------------------|-------------------|
 |------------------|--------------------|------------------|-------------------|
 |------------------|--------------------|------------------|-------------------|
 |------------------|-9-9-11-9-12-9-11-9-|-7-7-9-7-10-7-9-7-|-------------------|
 |-7-7-9-7-10-7-9-7-|-7-7--7-7--7-7--7-7-|-5-5-5-5--5-5-5-5-|-7-7-9-7-10-7-9-7--|
 |-5-5-5-5--5-5-5-5-|--------------------|------------------|-5-5-5-5--5-5-5-5--|

|
| E E E E E E E E E E E E E E E E E E E E E E E E E E E E E E E E
 
 |------------------|--------------------|------------------|-------------------|
 |------------------|--------------------|------------------|-------------------|
 |------------------|--------------------|------------------|-------------------|
 |------------------|-9-9-11-9-12-9-11-9-|-7-7-9-7-10-7-9-7-|-------------------|
 |-7-7-9-7-10-7-9-7-|-7-7--7-7--7-7--7-7-|-5-5-5-5--5-5-5-5-|-7-7-9-7-10-7-9-7--|
 |-5-5-5-5--5-5-5-5-|--------------------|------------------|-5-5-5-5--5-5-5-5--|

1.,2. 3.
E E E E E E E E 3x E E E E E E E E
 
 |-------------------||------------------||
 |------------------o||------------------||
 |-------------------||------------------||
 |-------------------||------------------||
 |-7-7-9-7-10-7-9-7-o||-7-7-9-7-10-7-9-7-||
 |-5-5-5-5--5-5-5-5--||-5-5-5-5--5-5-5-5-||

|
| E E E E E E E E 3x E E E E E E E E
 
 |-------------------||------------------||
 |------------------o||------------------||
 |-------------------||------------------||
 |-------------------||------------------||
 |-7-7-9-7-10-7-9-7-o||-7-7-9-7-10-7-9-7-||
 |-5-5-5-5--5-5-5-5--||-5-5-5-5--5-5-5-5-||

Guitar Solo
[A5]  
[E] [E] [E] [E] [E] [E] [E] [E] [E] [E] [E] [E] [E] [E] [E] [E]  
 
 |-------------------|--------------------|
 |-------------------|--------------------|
 |-------------------|--------------------|
 |-------------------|--------------------|
 |-7--7-9-7-10-7-9-7-|-7--7-9-7-10-7-9-7--|
 |-5--5-5-5--5-5-5-5-|-5--5-5-5--5-5-5-5--|

|
| E E Q E E Q E E E E E E E E
 
 |---/5-----/5-------|---/5---7--5---5----|
 |---/5-----/5-------|---/5---7--5---5----|
 |---/6-----/6-------|---/6---7--6---6----|
 |-------------------|-------------7---7--|
 |-------------------|--------------------|
 |-------------------|--------------------|

[E] [E] [E] [E] [E] [E] [E] [E] [E] [E] [E] [E] [E] [E] [E] [E]  
 
 |--------------------|-------------------|
 |--------------------|-------------------|
 |--------------------|-------------------|
 |--------------------|-------------------|
 |--7-7--9-7-10-7-9-7-|-7--7-9-7-10-7-9-7-|
 |--5-5--5-5--5-5-5-5-|-5--5-5-5--5-5-5-5-|

|
| E E E E Q Q E E E E E E Q
 
 |-/5---/5----7-------|---/5---7--5---5---|
 |-/5---/5----7-------|---/5---7--5---5---|
 |-/6---/6----7-------|---/6---7--6---6---|
 |--------------------|-------------7-----|
 |--------------------|-------------------|
 |--------------------|-------------------|

[D5]  
[E] [E] [E] [E] [E] [E] [E] [E] [E] [E] [E] [E] [E] [E] [E] [E]  
 
 |--------------------|--------------------|
 |--------------------|--------------------|
 |--------------------|--------------------|
 |--7-7--9-7-10-7-9-7-|-7--7-9-7-10-7-9-7--|
 |--5-5--5-5--5-5-5-5-|-5--5-5-5--5-5-5-5--|
 |--------------------|--------------------|

|
| E E E E Q Q E E E E E E Q
 
 |-/5---/5----7-------|---/5---7--5--------|
 |-/5---/5----7-------|---/5---7--5--------|
 |-/6---/6----7-------|---/6---7--6--------|
 |--------------------|-------------7-7----|
 |--------------------|--------------------|
 |--------------------|--------------------|

[A5]  
[E] [E] [E] [E] [E] [E] [E] [E] [E] [E] [E] [E] [E] [E] [E] [E]  
 
 |--------------------|-------------------|
 |--------------------|-------------------|
 |--------------------|-------------------|
 |--------------------|-------------------|
 |--7-7--9-7-10-7-9-7-|-7--7-9-7-10-7-9-7-|
 |--5-5--5-5--5-5-5-5-|-5--5-5-5--5-5-5-5-|

|
| E E E E Q Q E E E E E E Q
 
 |-/5---/5----7-------|---/5---7--5-------|
 |-/5---/5----7-------|---/5---7--5-------|
 |-/6---/6----7-------|---/6---7--6-------|
 |--------------------|-------------7-7---|
 |--------------------|-------------------|
 |--------------------|-------------------|

[E5] [D5]  
[E] [E] [E] [E] [E] [E] [E] [E] [E] [E] [E] [E] [E] [E] [E] [E]  
 
 |--------------------------|---------------------|
 |--------------------------|---------------------|
 |--------------------------|---------------------|
 |-9---9-11---9-12---9-11-9-|-7-7---9-7-10-7-9-7--|
 |-7---7--7---7--7---7--7-7-|-5-5---5-5--5-5-5-5--|
 |--------------------------|---------------------|

|
| E E E E E E Q E Q E E E E E
 
 |--------------------------|---7b9------5--------|
 |-----5------5------5--5---|--------------8-5----|
 |-7b9----7b9----7b9--------|------------------7--|
 |--------------------------|---------------------|
 |--------------------------|---------------------|
 |--------------------------|---------------------|

Outro
D.S. al Coda &
[A5] [A5] [A5] 
[E] [E] [E] [E] [E] [E] [E] [E] [E] [E] [E] [E] [E] [E] [E] [E] [E] [E] [E] [E] [E] [E] [E] [E] [E] [E] [E] [E] [E] [E] [E] [E]  
 
 |------------------|-------------------||------------------||------------------|
 |------------------|-------------------||------------------||------------------|
 |------------------|-------------------||------------------||------------------|
 |------------------|-------------------||------------------||------------------|
 |-7-7-9-7-10-7-9-7-|-7-7-9-7-10-7-9-7--||-7-7-9-7-10-7-9-7-||-7-7-9-7-10-7-9-7-|
 |-5-5-5-5--5-5-5-5-|-5-5-5-5--5-5-5-5--||-5-5-5-5--5-5-5-5-||-5-5-5-5--5-5-5-5-|

|
 
 | PM--------------------------------|

| E E E E E E E E E E E E E E E E E E E E E E E E E E E E E E E E
 
 |------------------|-------------------||------------------||------------------|
 |------------------|-------------------||------------------||------------------|
 |------------------|-------------------||------------------||------------------|
 |-7-7-7-7--7-7-7-7-|-7-7-7-7--7-7-7-7--||------------------||------------------|
 |------------------|-------------------||-7-7-9-7-10-7-9-7-||-7-7-9-7-10-7-9-7-|
 |------------------|-------------------||-5-5-5-5--5-5-5-5-||-5-5-5-5--5-5-5-5-|

[D5] 
[E] [E] [E] [E] [E] [E] [E] [E] [E] [E] [E] [E] [E] [E] [E] [E] [E] [E] [E] [E] [E] [E] [E] [E] [E] [E] [E] [E] [E] [E] [E] [E]  
 
 |------------------|------------------|------------------|-------------------|
 |------------------|------------------|------------------|-------------------|
 |------------------|------------------|------------------|-------------------|
 |------------------|------------------|------------------|-7-7-9-7-10-7-9-7--|
 |-7-7-9-7-10-7-9-7-|-7-7-9-7-10-7-9-7-|-7-7-9-7-10-7-9-7-|-5-5-5-5--5-5-5-5--|
 |-5-5-5-5--5-5-5-5-|-5-5-5-5--5-5-5-5-|-5-5-5-5--5-5-5-5-|-------------------|

|
| E E E E E E E E E E E E E E E E E E E E E E E E E E E E E E E E
 
 |------------------|------------------|------------------|-------------------|
 |------------------|------------------|------------------|-------------------|
 |------------------|------------------|------------------|-------------------|
 |------------------|------------------|------------------|-7-7-9-7-10-7-9-7--|
 |-7-7-9-7-10-7-9-7-|-7-7-9-7-10-7-9-7-|-7-7-9-7-10-7-9-7-|-5-5-5-5--5-5-5-5--|
 |-5-5-5-5--5-5-5-5-|-5-5-5-5--5-5-5-5-|-5-5-5-5--5-5-5-5-|-------------------|

[A5] [E5] 
[E] [E] [E] [E] [E] [E] [E] [E] [E] [E] [E] [E] [E] [E] [E] [E] [E] [E] [E] [E] [E] [E] [E] [E] [E] [E] [E] [E] [E] [E] [E] [E]  
 
 |------------------|------------------|------------------|---------------------|
 |------------------|------------------|------------------|---------------------|
 |------------------|------------------|------------------|---------------------|
 |-7-7-9-7-10-7-9-7-|------------------|------------------|-9-9-11-9-12-9-11-9--|
 |-5-5-5-5--5-5-5-5-|-7-7-9-7-10-7-9-7-|-7-7-9-7-10-7-9-7-|-7-7--7-7--7-7--7-7--|
 |------------------|-5-5-5-5--5-5-5-5-|-5-5-5-5--5-5-5-5-|---------------------|

|
| E E E E E E E E E E E E E E E E E E E E E E E E E E E E E E E E
 
 |------------------|------------------|------------------|---------------------|
 |------------------|------------------|------------------|---------------------|
 |------------------|------------------|------------------|---------------------|
 |-7-7-9-7-10-7-9-7-|------------------|------------------|-9-9-11-9-12-9-11-9--|
 |-5-5-5-5--5-5-5-5-|-7-7-9-7-10-7-9-7-|-7-7-9-7-10-7-9-7-|-7-7--7-7--7-7--7-7--|
 |------------------|-5-5-5-5--5-5-5-5-|-5-5-5-5--5-5-5-5-|---------------------|

D5 N.C. A5
E E E E E E E E E Q. Q Q Q E E +H +W
 
 |------------------|--------------|---------------|--------*|
 |------------------|--------------|----6-5-(5)----|-(5)----*|
 |------------------|--------------|----7-6-(6)----|-(6)----*|
 |-7-7-9-7-10-7-9-7-|--------------|----6-5-(5)----|-(5)----*|
 |-5-5-5-5--5-5-5-5-|--------4--5--|-7-------------|--------*|
 |------------------|---5----------|---------------|--------*|

|
| E E E E E E E E E Q. Q Q Q E E +H +W
 
 |------------------|--------------|---------------|--------*|
 |------------------|--------------|---------------|--------*|
 |------------------|--------------|---------------|--------*|
 |-7-7-9-7-10-7-9-7-|--------------|---------------|--------*|
 |-5-5-5-5--5-5-5-5-|--------4--5--|-7--7-7-(7)----|-(7)----*|
 |------------------|---5----------|----5-5-(5)----|-(5)----*| 


Important: The song above is NOT stored on the Chordie server. The original song is hosted at www.azchords.com. Chordie works as a search engine and provides on-the-fly formatting. Chordie does not index songs against artists'/composers' will. To remove this song please click here.

Text color:
Chord color:
Chord grids: 
Font size:    
Page size: 

A A5 D5 E E5
Rate #1 of 1 versions

Login - add to songbook

SHARE PAGE  



You need to log in to post comments