Guitar Tabs, Chords and Lyrics
Server problems seems to be fixed. Chordie has been experiencing problems with songs disappearing. These issues now seems to be fixed, but still verifying the fix. If you find anything strange, please email admin@chordie.com.


All Sparks  Editors

Band: Editors
this sounds spot on and brilliant on an acoustic. Also where an
Asus4 is played you can vary it between that and the Asus4/F# and
the Asus4/G. This will make it sound like a reference
Chords:
eadgbe
Em7 (022030)
Em (022000)
Asus4 (x02230)
Asus4/F# (x02232)
Asus4/G (x02233)
Cadd9 (x32033)
D (xx0232)
CAPO 2ND FRET!!
Intro:
 
 e-----0-0-----0----0-0-----0----0-0-----0----0-0-----2-2-2-3-0---2-2-2-3-0-|
 b---------3-3----------3-3----------3-3----------3-3-----------------------|
 g--------------------------------------------------------------------------|
 d--------------------------------------------------------------------------|
 a--------------------------------------------------------0-----------0-----|
 e--0-------------0------------0------------0-------------------------------|
 e----0----0-0-----0----0-0-----0-------------------------------------------|
 b--3----------3-3----------3-3---------------------------------------------|
 g--------------------------------------------------------------------------|
 d--------------------------------------------------------------------------|
 a--------------------------------------------------------------------------|
 e-------0------------0-----------------------------------------------------|

Verse:
You're [Em7]answering [Em7]questions that [Em7]have not yet [Em7]been asked
All [Asus4]sparks will [Asus4]burn out in the end[Em7]
You [Em7]burn like a [Em7]bouncing cig[Em7]arette on [Em7]the road
Asus4 Asus4 Em7 (here you can add the first part of
All sparks will burn out in the end the intro
the variationof Em7)
Chorus:
[Cadd9] [Em] All [D]sparks will [Cadd9]burn out
[Em] All [D]sparks will [Cadd9]burn out
[Em] All [D]sparks will [Cadd9]burn out
Em D Em7 (back to intro)
In the end
Verse:
You're [Em7]casting o[Em7]pinions at [Em7]people who [Em7]need them
All [Asus4]sparks will [Asus4]burn out in the [Em7]end
Well [Em7]be careful [Em7]Angel, this [Em7]life is just [Em7]too long
All [Asus4]sparks will [Asus4]burn out in the [Em7]end
Chorus:
[Cadd9] [Em] All [D]sparks will [Cadd9]burn out
[Em] All [D]sparks will [Cadd9]burn out
[Em] All [D]sparks will [Cadd9]burn out
[Em] [D] In the [Em7]end
Interlude:
You [Em7]burn like
A [Em7]bouncing
cigar[Asus4]ette
Outro:
[Cadd9] [Em] All [D]sparks will [Cadd9]burn out
[Em] All [D]sparks will [Cadd9]burn out
[Em] All [D]sparks will [Cadd9]burn out
[Em] All [D]sparks will [Cadd9]burn out
[Em] All [D]sparks will [Cadd9]burn out
[Em] All [D]sparks will [Cadd9]burn out
[Em] All[D] sparks will[Cadd9] burn out
[Em] All [D]sparks will [Cadd9]burn out
Please rate!!!!

Important: The song above is NOT stored on the Chordie server. The original song is hosted at www.azchords.com. Chordie works as a search engine and provides on-the-fly formatting. Chordie does not index songs against artists'/composers' will. To remove this song please click here.

Text color:
Chord color:
Chord grids: 
Font size:    
Page size: 

Asus4 Cadd9 D Em Em7
Rate #1 of 4 versions

Jango Player

Login - add to songbook

SHARE PAGE  



You need to log in to post comments