Guitar Tabs, Chords and Lyrics
Update 25:10. 13:00. Site is back up running again. Songbooks are recovered. Woring on getting search back up..


Perfect  Ed Sheeran

[Verse 1] 
I found a [G]love for m[Em7]e
Darling just [Cadd9]dive right in, and follow my [D]lead
Well I found a [G]girl beauti[Em7]ful and sweet
Well I never [Cadd9]knew you were the someone waiting for [D]me
| G Em7 Cadd9 D | G Em7 Cadd9 D |
2x G Em7 Cadd9 D
 
 E|-------------------------|-------------------------|---------------------------------------2H3-----------|
 B|-3-3-3-3-3-3-3-3-3-3-3-3-|-3-3-3-3-3-3-3-3-3-3-3-3-|-3-3-3-3-3-3-3-3-3-3-3-3-|-3-3-3-3-3-3-3---3-3-3-3-3-|
 G|-0-0-0-0-0-0-0-0-0-0-0-0-|-0-0-0-0-0-0-0-0-0-0-0-0-|-0-0-0-0-0-0-0-0-0-0-0-0-|-2-2-2-2-2-2-2---2-2-2-2-2-|
 D|-------------------------|-------------------------|-------------------------|-0-----0-----0-------0-----|
 A|-------------------------|-------------------------|-3-----3-----3-----3-----|---------------------------|
 E|-3-----3-----3-----3-----|-0-----0-----0-----0-----|-------------------------|---------------------------|

[G] [Em7] [Cadd9] [D]  
 
 E|-------------------------|-------------------------|---------------------------------------3-------------|
 B|-3-3-3-3-3-3-3-3-3-3-3-3-|-3-3-3-3-3-3-3-3-3-3-3-3-|-3-3-3-3-3-3-3-3-3-3-3-3-|-3-3-3-3-3-3-2-------------|
 G|-0-0-0-0-0-0-0-0-0-0-0-0-|-0-0-0-0-0-0-0-0-0-0-0-0-|-0-0-0-0-0-0-0-0-0-0-0-0-|-2-2-2-2-2-2-2-------------|
 D|-------------------------|-------------------------|-------------------------|-0-----0-----0-------------|
 A|-------------------------|-------------------------|-3-----3-----3-----3-----|---------------------------|
 E|-3-----3-----3-----3-----|-0-----0-----0-----0-----|-------------------------|---------------------------|

[Pre-Cborus 1] 
Cause we were just kids when we
[G]Fell in love, not knowing [Em7]what it was
I will not [Cadd9]give you up this [G]ti[D]me
But darling just [G]kiss me slow, your heart is [Em7]all I own
And in your [Cadd9]eyes you??re holding [D]mine
| G Em7 Cadd9 G D | G Em7 Cadd9 D |
1x G Em7 Cadd9 G D
 
 E|-------------------------|-------------------------|---------------------------------------------------|
 B|-3-3-3-3-3-3-3-3-3-3-3-3-|-3-3-3-3-3-3-3-3-3-3-3-3-|-3-3-3-3-3-3-3-3-3-3-3-3-|-3-3-3-3-3-3-2-3-3-3-3-3-|
 G|-0-0-0-0-0-0-0-0-0-0-0-0-|-0-0-0-0-0-0-0-0-0-0-0-0-|-0-0-0-0-0-0-0-0-0-0-0-0-|-0-0-0-0-0-0-2-2-2-2-2-2-|
 D|-------------------------|-------------------------|-------------------------|-------------0-----------|
 A|-------------------------|-------------------------|-3-----------3-----------|-------------------------|
 E|-3-----------3-----------|-0-----------0-----------|-------------------------|-3-----------------------|

[G] [Em7] [Cadd9] [D]  
 
 E|-------------------------|-------------------------|---------------------------------------3-----------|
 B|-3-3-3-3-3-3-3-3-3-3-3-3-|-3-3-3-3-3-3-3-3-3-3-3-3-|-3-3-3-3-3-3-3-3-3-3-3-3-|-3-3-3-3-3-3-2-----------|
 G|-0-0-0-0-0-0-0-0-0-0-0-0-|-0-0-0-0-0-0-0-0-0-0-0-0-|-0-0-0-0-0-0-0-0-0-0-0-0-|-2-2-2-2-2-2-2-----------|
 D|-------------------------|-------------------------|-------------------------|-0-----------0-----------|
 A|-------------------------|-------------------------|-3-----------3-----------|-------------------------|
 E|-3-----------3-----------|-0-----------0-----------|-------------------------|-------------------------|

[Cborus 1] 
Baby [Em7]I??[Cadd9]m dancing in th[G]e dark, wit[D]h you between m[Em7]y arms
[Cadd9]Barefoot on the [G]grass, [D]listening to our [Em7]favorite song
When you [Cadd9]said you looked a [G]mess, I whispered [D]underneath my [Em7]breath
But you [Cadd9]heard it, darling [G]you look [D]perfect tonight[G] [D/F#] [Em7] [D] [Cadd9] [D]
X4 Em C G D
 
 E|--------------|--------------|-------------|-------2-----|
 B|--------0-----|--------1-----|-------3-----|-----3---3---|
 G|------0---0---|------0---0---|-----0---0---|---2-------2-|
 D|----2-------2-|---2--------2-|---0-------0-|-0-----------|
 A|--------------|-3------------|-------------|-------------|
 E|-0------------|--------------|-3-----------|-------------|

[Fill]1x
[G] [D/F#] [Em] [D] [Cadd9] [D]  
 
 E|---------------|----------------|-------------|-2--------|
 B|---------------|------------3---|-------3-----|-3--------|
 G|-----0------2--|-----0----2-----|-----0---0---|-2--------|
 D|---0------0----|---2----0-------|---0-------0-|-0--------|
 A|---------------|----------------|-3-----------|----------|
 E|-3------2------|-0--------------|-------------|----------|

[Verse 2] 
Well I found a [G]woman, stronger than [Em7]anyone I know
She shares my [Cadd9]dreams, I hope that someday I??ll share he[D]r home
I found a [G]love, to carry [Em7]more than just my secrets
To carry [Cadd9]love, to carry children of our [D]own
STRUMMING = dddDdd Play Twice For Each Chord
| G Em7 Cadd9 D |
[Pre-Cborus 2] 
We are still kids, but we??r[G]e so in love, fighting[Em7] against all odds
I know [Cadd9]we??ll be alright thi[D]s time
Darling just [G]hold my hand, be my girl, I??l[Em7]l be your man
I see my [Cadd9]future in your ey[D]es
1x
STRUMMING = dddDdd Play Twice For Each Chord
|G Em7 Cadd9 |G D| |G Em7 Cadd9 D|
[Cborus 2] 
Baby [Em7]I??[Cadd9]m dancing in th[G]e dark, wit[D]h you between m[Em7]y arms
[Cadd9]Barefoot on the [G]grass, [D]listening to our [Em7]favorite song
When I [Cadd9]saw you in that [G]dress, looking so [D]beautiful
I [Em7]don't de[Cadd9]serve this, darling [G]you look [D]perfect t[(G)]onight
X4
STRUMMING = dddDdd Play Once For Each Chord
| Em C G D |
Solo Part
STRUMMING = dddDdd Play Twice For Each Chord | G Em7 Cadd9 D |
[SOLO - NO CAPO] 
 
 e|-------------------------------------|---------------------------------------------|
 B|-------------------------------------|---------------------------------------------|
 G|-------------------------------------|---------------------------------------------|
 D|-----6-8-8/10------10-8-6-8--/10\8p6-|------6-8-8/10---8-6-8-8/11---10-8-6-8--6--5-|
 A|-6h8---------------------------------|--6h8----------------------------------------|
 E|-------------------------------------|---------------------------------------------|

[Cborus 3] 
Baby [Em7]I??[Cadd9]m dancing in th[G]e dark, wit[D]h you between m[Em7]y arms
[Cadd9]Barefoot on the [G]grass, [D]listening to our [Em7]favorite song
I have [Cadd9]faith in what I [G]see, now I know [D]I have met an [Em7]angel
In [Cadd9]person, and [G]she looks [D]perfect tonight
No I [Cadd9]don't deserve it, [D]you look perfect tonight[G] [D/F#] [Em7] [D] [Cadd9] [D] [G]
X4
STRUMMING = dddDdd Play Once For Each Chord | Em C G D C D |
[Fill]1x
[G] [D/F#] [Em] [D] [Cadd9] [D] [G]  
 
 E|---------------|----------------|-------------|-2------3-|
 B|---------------|------------3---|-------3-----|-3------3-|
 G|-----0------2--|-----0----2-----|-----0---0---|-2------0-|
 D|---0------0----|---2----0-------|---0-------0-|-0------0-|
 A|---------------|----------------|-3-----------|--------2-|
 E|-3------2------|-0--------------|-------------|--------3-| 


Important: The song above is NOT stored on the Chordie server. The original song is hosted at www.azchords.com. Chordie works as a search engine and provides on-the-fly formatting. Chordie does not index songs against artists'/composers' will. To remove this song please click here.

Text color:
Chord color:
Chord grids: 
Font size:    
Page size: 

Cadd9 D D/F# Em Em7 G
Rate #1 of 12 versions

Jango Player

Login - add to songbook

SHARE PAGE  



You need to log in to post comments